Minungum Minnaminunge - Oppam (Malayalam) Song Guitar Notes


Song   : Minungum Minnaminunge
Movie  : Oppam
Singer : M G Sreekumar, Shreya Jayadeep
Music  : Jim,Biby, Eldhose, Justin
Lyrics : B K Harinarayanan


The 1st(E), 2nd(B) and 3rd(G) strings are used.

  Minungum Minnaminuge
B---6-6------6-6-8-8/9\8\6--------
G-5--------5----------------------
  Minni Minni Thedunnathare
B-6-6---6-------6-6-8-8/9\8\6-----
G---------5---5-------------------
  Varumo     Chare Ninnachan
B-8-11--11\9-8/9\8-8-8/9\8--8\6---

  Minungum Minnaminuge
B---6-6------6-6-8-8/9\8\6--------
G-5--------5----------------------
  Minni Minni Thedunnathare
B-6-6---6-------6-6-8-8/9\8\6-----
G---------5---5-------------------
  Varumo     Chare Ninnachan
B-8-11--11\9-8/9\8-8-8/9\8--8\6---

  Nerukil Thotu Thalodi
B---6-6---------6-8-8/9\8\6-----
G-5-------5-5-------------------
  Kadhakal Paadi Urakkan
B-6-6-6------6---6-8-8/9\8\6----
G----------5--------------------
  Varumo     Chare Ninnachan
B-8-11--11\9-8/9\8-8-8/9\8-8\6--


  Puthukanaval Mashiyezhuthi
E---6-8-6-8------6-8-6-8--
B-9------------9----------
  Mizhikalilaadyam
E---6-8-9-8\6-6-----------
B-9-----------------------
  Chirakukalil Kilukilungum
E-----6---6--------6---6--
B-8-9---9------8-9---9----
  Tharivalayeki
E-----6-------------------
B-8-9---9-8\6-6-----------
  Kunjichundil Ponnum Thenum
B-4-4/6\4-6-8--8-9/11-9-8-
  Thannu Maamooti
B-8-9/11-9-6-8---------
  Picha Picha Vekkan Koodi
B-4-4---6-6---8-9/11-9-8--
  Vannu    Kai Neeti
B-8-9/11\9-8---6--6-------


  Minungum Minnaminuge
B---6-6------6-6-8-8/9\8\6--------
G-5--------5----------------------
  Minni Minni Thedunnathare
B-6-6---6-------6-6-8-8/9\8\6-----
G---------5---5-------------------
  Varumo     Chare Ninnachan
B-8-11--11\9-8/9\8-8-8/9\8--8\6---


  Kathonnu Kutheetu Manikka Kallinte
E-6-8-6----8-6--------6-----6--------
B--------------9----9---9-----9-8----
  Kammalidum Neram
E-----8-6----6---6-------------------
B-8-9--------------------------------
  Thengalu Matuvan Tholatheduthitu
E-8-9-8----6-6-6---8-9-8-6-6-6-------
  Paatum Paadilley
B-8-9/11-9-8-9\6---------------------
  Tharakam Thannoru Mothiram Kondu Nin
E-6-8-6----8-6--------6------6-------
B--------------9----9---9------9---8-
  Kunjilam Navinmel
E-----8----6-6---6-------------------
B-8-9--------------------------------
  Thookiyoraksharam Chollitharilleyen
E-8-9-8-6-6-6-------8-9-8-6-6-6------
  Minnaminni Nee
B-8-9/11-9-8-9\6---------------------
  Pakaliravakey   Oru Nizhalayi
E------8-11-9\8-8------8-11-9\8-8----
B-9-11------------9-11---------------
  Kalonnu Thenneedumpol
E-8-9-8---6-8-6----------------------
B---------------9--------------------
  Ennachan Kavalinethukille
E------------6-----------------------
B-8-8-8----9---9-8-9-8-6-------------
  Koriyedukkumthorum Nirayunna
E-8-9-8-6-8-6------------------------
B-------------9------8-8-8-8---------
  Snehathin Cholayalle
E---6--------------------------------
B-9---9-----8-9-8-6------------------


  Minungum Minnaminuge
B---6-6------6-6-8-8/9\8\6--------
G-5--------5----------------------
  Minni Minni Thedunnathare
B-6-6---6-------6-6-8-8/9\8\6-----
G---------5---5-------------------
  Varumo     Chare Ninnachan
B-8-11--11\9-8/9\8-8-8/9\8--8\6---


  Puthanuduppit Potu Thodeechit
E-6-8-6-8-6-------6----6------------
B-----------9---9----9---9-8--------
  Ninneyorukkiyille
E-----8-6-6---6---------------------
B-8-9-------------------------------
  Pallikoodathinte Illi Paadivare
E-8-9-8-6-6-6------8-9--8-6-6-6-----
  Koodee Neeyille
B-8-9/11-9-8-9\6--------------------
  Nee Chirikkum Neram Achante Kannil
E-6---8-6-8-----6-------6-----6-----
B-----------------9---9---9-----9-8-
  Chinga Nilavalle
E--------8-6-6---6------------------
B-8-9-------------------------------
  Neeyonnu Vaadiyal Aaararum Kanatha
E-8-9-8----6-6-6----8-9-8----6-6-6--
  Nenjam Vingille
B-8-9/11-9-8-9\6--------------------
  Manimukilolam   Makal Valarnnalum
E------8-11-9\8-8-------8-11-9\8-8--
B-9-11------------9-11--------------
  Achante Ullilennum
E-8-9-8---6-8-6---------------------
B---------------9-------------------
  Avaloru Thaamara Thumpiyalle
E-----------6-----------------------
B-8-8-8-8-9---9----8-9-8-6----------
  Chellakkurumbu Kaati
E-8-9-8-6-8------6------------------
B------------------9----------------
  Chinungunna Chundari Vaavayalle
E---------------6-------------------
B-8-8-8-8-----9---9----8-9-8-6------


  Minungum Minnaminuge
B---6-6------6-6-8-8/9\8\6--------
G-5--------5----------------------
  Minni Minni Thedunnathare
B-6-6---6-------6-6-8-8/9\8\6-----
G---------5---5-------------------
  Varumo     Chare Ninnachan
B-8-11--11\9-8/9\8-8-8/9\8--8\6---

  Puthukanaval Mashiyezhuthi
E---6-8-6-8------6-8-6-8--
B-9------------9----------
  Mizhikalilaadyam
E---6-8-9-8\6-6-----------
B-9-----------------------
  Chirakukalil Kilukilungum
E-----6---6--------6---6--
B-8-9---9------8-9---9----
  Tharivalayeki
E-----6-------------------
B-8-9---9-8\6-6-----------
  Kunjichundil Ponnum Thenum
B-4-4/6\4-6-8--8-9/11-9-8-
  Thannu Maamooti
B-8-9/11-9-6-8---------
  Picha Picha Vekkan Koodi
B-4-4---6-6---8-9/11-9-8--
  Vannu    Kai Neeti
B-8-9/11\9-8---6--6-------

/ - slide up
\ - slide down

Har Ghadi Badal Rahi Hai - Kal Ho Naa Ho (Hindi) Song Guitar Notes


Song   : Har Ghadi Badal Rahi Hai
Movie  : Kal Ho Na Ho
Singer : Sonu Nigam
Music  : Shankar, Ehsaan and Loy
Lyrics : Javed Akhtar

The 1st(E) and 2nd(B) strings are used.

  Har ghadi badal rahi   hai  roop zindagi
E-8---7-8---7-8---7-8/10-10\8-7--5-7--5-7----
  Chaanv hai kabhi, kabhi  hai  dhoop zindagi
E-8---7--8---7-8----7-8/10-10\8-7--5--7--5-7-
  Har pal yahan
E-----5---7-5--------------------------------
B-8------------------------------------------
  Jee bhar jiyo jo hai samaa
E----------5-------5---8-5-------------------
B-6---8------8--8----------------------------
  Kal ho naa ho
E-----6--5-----------------------------------
B-6----------8-------------------------------

  Har ghadi badal rahi   hai  roop zindagi
E-8---7-8---7-8---7-8/10-10\8-7--5-7--5-7----
  Chaanv hai kabhi, kabhi  hai  dhoop zindagi
E-8---7--8---7-8----7-8/10-10\8-7--5--7--5-7-
  Har pal yahan
E-----5---7-5--------------------------------
B-8------------------------------------------
  Jee bhar jiyo jo hai samaa
E----------5-------5---8-5-------------------
B-6---8------8--8----------------------------
  Kal ho naa ho
E-----6--5-----------------------------------
B-6----------8-------------------------------


  Chaahe jo  tumhe poore dil se
E-7--8---/12-10-10-8-7---7---8----
  Milta    hai woh mushkil se
E-7-8-8/12-10--10--8-7-7---8--5---
B-------------------------------8-
  Aisa   jo koi  kahin hai
E-7/8-12-10-10-8-7-7---8----------
  Bas wohi  sabse    hasin hai
E-7-8-12-10-10-10--8-7-7---8--5---
B-------------------------------8-
  Uss haath ko tum thaam lo
E-----5---7-5--------5------------
B-8------------6---8-----8--------
  Woh meherbaan kal ho naa ho
E-----5---8-5-------6--5----------
B-8-------------6----------8------
  Har pal yahan
E-----5---7-5---------------------
B-8-------------------------------
  Jee bhar jiyo jo hai samaa
E----------5-------5---8-5--------
B-6---8------8--8-----------------
  Kal ho naa ho
E-----6--5------------------------
B-6----------8--------------------


  Palko  ke leke   saaye
E-7-8-10-5-----------------------------------
B-----------8--6\5-6--8----------------------
  Paas   koi jo  aaye
E-7/8-10-5---------5-------------------------
B----------8-6\5-6---------------------------
  Lakh   sambhalo     paagal    dil   ko
E-7/8-12-10-10-10\8\7-7/8-12-10-10-10-10\8\7-
  Dil dhadke      hi  jaaye
E-7-8-10-12-10/12-8\7-7--8---5---------------
B------------------------------8-------------
  Par soch lo is pal hai jo
E-----5--7-5---------5-----------------------
B-8-----------6--8-------8-------------------
  Woh daastan kal ho naa ho
E-----5---8-5-----6--5-----------------------
B-8-----------6----------8-------------------


  Har ghadi badal rahi   hai  roop zindagi
E-8---7-8---7-8---7-8/10-10\8-7--5-7--5-7----
  Chaanv hai kabhi, kabhi  hai  dhoop zindagi
E-8---7--8---7-8----7-8/10-10\8-7--5--7--5-7-
  Har pal yahan
E-----5---7-5--------------------------------
B-8------------------------------------------
  Jee bhar jiyo jo hai samaa
E----------5-------5---8-5-------------------
B-6---8------8--8----------------------------
  Kal ho naa ho
E-----6--5-----------------------------------
B-6----------8-------------------------------
  Har pal yahan
E-----5---7-5--------------------------------
B-8------------------------------------------
  Jee bhar jiyo jo hai samaa
E----------5-------5---8-5-------------------
B-6---8------8--8----------------------------
  Kal ho naa ho
E-----6--5-----------------------------------
B-6----------8-------------------------------


/ - slide up
\ - slide down

List of Hindi Guitar Tabs/Notes


  1. Abhi Mujh Mein Kahin - Agneepath View
  2. Pani da Rang - Vicky Donor View
  3. Tum Hi Ho - Aashiqui 2 View