Munbe Vaa - Sillunu Oru Kadhal (Tamil) Song Guitar Notes

Song   : Munbe Vaa
Movie  : Sillunu Oru Kadhal
Singers: Naresh Iyer, Sherya Ghoshal
Music  : A.R.Rahman
Lyrics : Kavingar Vaali


2nd(B) and 1st(E) strings are used.

[Female]

  Munbe vaa en anbe vaa
E-4/6-6-2\1-1--1-2--2/6------------
  oone  vaa     uyire   vaa
E-6-6\4-4/8--\6-6/9-8\6-4----------
  munbe vaa en anbe vaa
E-4/6-6-2\1-1--1-2--2/6------------
  poo   poovai  poopom  vaa
E-6-6\4-4/8--\6-6/9-8\6-4----------
  naa naanaa ketten yennai naane
E-8/9-8-8/9--8-8/9--9h11-9-8-------
B-----------------------------11\9-
  naan neeya nenjam  sonnathe
E-4/9--1-1/9-8h9-8h9-9h11-9-8\6----

  Munbe   vaa en anbe vaa
E-6/9-8\6-2\1-1--1-2--2/6-
  oone  vaa     uyire   vaa
E-6-6\4-4/8--\6-6/9-8\6-4-
  munbe vaa en anbe vaa
E-4/6-6-2\1-1--1-2--2/6---
  poo   poovai  poopom  vaa
E-6-6\4-4/8--\6-6/9-8\6-4-

[Chorus]

  Rango      rangoli
E-4-/6-6--/8-8\6-6-6--\4-------
  kolangal  nee potaal
E-4-4/6-6\1-1---1/4-4----------
  kolam pottaval kaigal vaazhi
E-4-4h6-4-----4--4-4h6--4------
B---------6-6-------------6-6--
  valaiyal sattham jal jal
B-4h6------6-6--\4-6---/9-9----

  Rango      rangoli
E-4-/6-6--/8-8\6-6-6--\4----------
  kolangal  nee potaal
E-4-4/6-6\1-1---1/4-4-------------
  kolam pottaval kaigal vaazhi
E-4-4h6-4-----4--4-4h6--4---------
B---------6-6-------------6-6--
  sundara maligai santhana malligai
E-----------4-4---4-6-6----6----8-
B-4-6-6---6-----------------------
  sithira punnagai vannam intha
E-8-6-6---6----4---4--------------
B--------------------6----6---4---

[Female]

  Poovaithaai poovaithaai
E---------------------------------------------
B-6-6-6/9-6\4-6-6/9---------------------------
  nee poovaikkor poovaithaai
E-4---4-4-4/6----4---4-4/6--------------------
B------------------6--------------------------
  mana poovaithu poovaithu
E-6-6--6---6-6---6/9-6------------------------
B----------------------9----------------------
  poovukul thee vaithai ohhhh
E-6---6-6--6/9--6---------9-8h9-6h8-4h6-1/4\1-
B-----------------9-9---9------------

[Male]

  Thaeney nee mazhaiyilaada
E---------------------------------
B-6-6-----6---6/9-6\4-6-6/9-------
  naan naan naa nanainthen vaada
E-4----4----4---4/6-4------4-4/6--
B---------------------6-----------
  en nalathil un  ratham
E-6--6---6-6--6/9-6---------------
B-------------------9-------
  naadikul un  satham uyire   ho..
E-6---6-6--6/9-6--------9-8-------
B-----------------9-9-9-------9\6-

[Female]

  Thozhil oru sila naazhi
E-8/9-6\4-4-6-8-11-8/9-6\4-
  thaniya naal
E-4-6-8-11-9/11-9/13-------
  tharaiyinil neendum
E-11-9-8-6----6--4/6-4/6---


  Munbe vaa en anbe vaa
E-4/6-6-2\1-1--1-2--2/6------------
  oone  vaa     uyire   vaa
E-6-6\4-4/8--\6-6/9-8\6-4----------
  naa naanaa ketten yennai naane
E-8/9-8-8/9--8-8/9--9h11-9-8-------
B-----------------------------11\9-

[Male]

  naa naanaa ketten yennai naane
E-8/9-8-8/9--8-8/9--9h11-9-8-------
B-----------------------------11\9-

[Female]

  Munbe   vaa en anbe vaa
E-6/9-8\6-2\1-1--1-2--2/6-
  poo   poovai  poopom  vaa
E-6-6\4-4/8--\6-6/9-8\6-4-


[Male]


  Nilavidam vaadagai vaangi
B-6-6-6-6---6/9-6-4--6-6/9-----------------
  vizhi veetil kudi vaikkalaama
E-4--4--4---4--4/6--4---4-4/6--------------
B---------------------6--------------------
  naan vazhum veettukkul
E-6----6----6-6/9-6------------------------
B-------------------9----------------------
  veraaum vanthaley  thagumaa
E-6-6--6--6/9--6-------9-8h9-6h8-4h6-1/4\1-
B----------------9-9-9---------------------

[Female]

  Then malai thekuku nee than
B-6----6-6---6/9-6-4-6---6/9-----------------
  unthan tholgalil idam tharalaama
E-4--4---4--4-4----4/6--4---4-4/6------------
B-------------------------6------------------
  naan saayum thol mel
E-6----6----6-6/9--6\4-----------------------
  verorum saainthaaley thagumaa
E-6-6--6--6/9--6---------9-8h9-6h8-4h6-1/4\1-
B----------------9-9---9---------------------

[Male]

  Neerum  sengula  chaerum
E-8/9-6\4-4-6-8-11-8/9-6\4-
  kalanthathu poley
E-4-6-8-11----9/11-9/13----
  kalanthavalaa
E-11-9-8-6---6--4/6-4/6----

[Female]

  Munbe vaa en anbe vaa
E-4/6-6-2\1-1--1-2--2/6---
  oone  vaa     uyire   vaa
E-6-6\4-4/8--\6-6/9-8\6-4-
  munbe vaa en anbe vaa
E-4/6-6-2\1-1--1-2--2/6---
  poo   poovai  poopom  vaa
E-6-6\4-4/8--\6-6/9-8\6-4-

[Male]

  Naa naanaa ketten yennai naane
E-8/9-8-8/9--8-8/9--9h11-9-8----
  naan neeya nenjam  sonnathe
E-4/9--1-1/9-8h9-8h9-9h11-9-8\6-

[Male & Female]

Munbe vaa en anbe vaa
E-4/6-6-2\1-1--1-2--2/6-

[Female]

  oone  vaa     uyire   vaa
E-6-6\4-4/8--\6-6/9-8\6-4-
  munbe vaa en anbe vaa
E-4/6-6-2\1-1--1-2--2/6---
  poo   poovai  poopom  vaa
E-6-6\4-4/8--\6-6/9-8\6-4-

[Chorus]

  Rango      rangoli
E-4-/6-6--/8-8\6-6-6--\4------
  kolangal  nee potaal
E-4-4/6-6\1-1---1/4-4---------
  kolam pottaval kaigal vaazhi
E-4-4h6-4-----4--4-4h6--4-----
B---------6-6-------------6-6-
  valaiyal sattham jal jal
B-4h6------6-6--\4-6---/9-9---

  rango      rangoli
E-4-/6-6--/8-8\6-6-6--\4----------
  kolangal  nee potaal
E-4-4/6-6\1-1---1/4-4-------------
  kolam pottaval kaigal vaazhi
E-4-4h6-4-----4--4-4h6--4---------
B---------6-6-------------6-6-----
  sundara maligai santhana malligai
E-----------4-4---4-6-6----6----8-
B-4-6-6---6-----------------------
  sithira punnagai vannam intha
E-8-6-6---6----4---4--------------
B--------------------6----6---4---


/ - slide up
\ - slide down
h - hammer on

Minungum Minnaminunge - Oppam (Malayalam) Song Guitar Notes


Song   : Minungum Minnaminunge
Movie  : Oppam
Singer : M G Sreekumar, Shreya Jayadeep
Music  : Jim,Biby, Eldhose, Justin
Lyrics : B K Harinarayanan


The 1st(E), 2nd(B) and 3rd(G) strings are used.

  Minungum Minnaminuge
B---6-6------6-6-8-8/9\8\6--------
G-5--------5----------------------
  Minni Minni Thedunnathare
B-6-6---6-------6-6-8-8/9\8\6-----
G---------5---5-------------------
  Varumo     Chare Ninnachan
B-8-11--11\9-8/9\8-8-8/9\8--8\6---

  Minungum Minnaminuge
B---6-6------6-6-8-8/9\8\6--------
G-5--------5----------------------
  Minni Minni Thedunnathare
B-6-6---6-------6-6-8-8/9\8\6-----
G---------5---5-------------------
  Varumo     Chare Ninnachan
B-8-11--11\9-8/9\8-8-8/9\8--8\6---

  Nerukil Thotu Thalodi
B---6-6---------6-8-8/9\8\6-----
G-5-------5-5-------------------
  Kadhakal Paadi Urakkan
B-6-6-6------6---6-8-8/9\8\6----
G----------5--------------------
  Varumo     Chare Ninnachan
B-8-11--11\9-8/9\8-8-8/9\8-8\6--


  Puthukanaval Mashiyezhuthi
E---6-8-6-8------6-8-6-8--
B-9------------9----------
  Mizhikalilaadyam
E---6-8-9-8\6-6-----------
B-9-----------------------
  Chirakukalil Kilukilungum
E-----6---6--------6---6--
B-8-9---9------8-9---9----
  Tharivalayeki
E-----6-------------------
B-8-9---9-8\6-6-----------
  Kunjichundil Ponnum Thenum
B-4-4/6\4-6-8--8-9/11-9-8-
  Thannu Maamooti
B-8-9/11-9-6-8---------
  Picha Picha Vekkan Koodi
B-4-4---6-6---8-9/11-9-8--
  Vannu    Kai Neeti
B-8-9/11\9-8---6--6-------


  Minungum Minnaminuge
B---6-6------6-6-8-8/9\8\6--------
G-5--------5----------------------
  Minni Minni Thedunnathare
B-6-6---6-------6-6-8-8/9\8\6-----
G---------5---5-------------------
  Varumo     Chare Ninnachan
B-8-11--11\9-8/9\8-8-8/9\8--8\6---


  Kathonnu Kutheetu Manikka Kallinte
E-6-8-6----8-6--------6-----6--------
B--------------9----9---9-----9-8----
  Kammalidum Neram
E-----8-6----6---6-------------------
B-8-9--------------------------------
  Thengalu Matuvan Tholatheduthitu
E-8-9-8----6-6-6---8-9-8-6-6-6-------
  Paatum Paadilley
B-8-9/11-9-8-9\6---------------------
  Tharakam Thannoru Mothiram Kondu Nin
E-6-8-6----8-6--------6------6-------
B--------------9----9---9------9---8-
  Kunjilam Navinmel
E-----8----6-6---6-------------------
B-8-9--------------------------------
  Thookiyoraksharam Chollitharilleyen
E-8-9-8-6-6-6-------8-9-8-6-6-6------
  Minnaminni Nee
B-8-9/11-9-8-9\6---------------------
  Pakaliravakey   Oru Nizhalayi
E------8-11-9\8-8------8-11-9\8-8----
B-9-11------------9-11---------------
  Kalonnu Thenneedumpol
E-8-9-8---6-8-6----------------------
B---------------9--------------------
  Ennachan Kavalinethukille
E------------6-----------------------
B-8-8-8----9---9-8-9-8-6-------------
  Koriyedukkumthorum Nirayunna
E-8-9-8-6-8-6------------------------
B-------------9------8-8-8-8---------
  Snehathin Cholayalle
E---6--------------------------------
B-9---9-----8-9-8-6------------------


  Minungum Minnaminuge
B---6-6------6-6-8-8/9\8\6--------
G-5--------5----------------------
  Minni Minni Thedunnathare
B-6-6---6-------6-6-8-8/9\8\6-----
G---------5---5-------------------
  Varumo     Chare Ninnachan
B-8-11--11\9-8/9\8-8-8/9\8--8\6---


  Puthanuduppit Potu Thodeechit
E-6-8-6-8-6-------6----6------------
B-----------9---9----9---9-8--------
  Ninneyorukkiyille
E-----8-6-6---6---------------------
B-8-9-------------------------------
  Pallikoodathinte Illi Paadivare
E-8-9-8-6-6-6------8-9--8-6-6-6-----
  Koodee Neeyille
B-8-9/11-9-8-9\6--------------------
  Nee Chirikkum Neram Achante Kannil
E-6---8-6-8-----6-------6-----6-----
B-----------------9---9---9-----9-8-
  Chinga Nilavalle
E--------8-6-6---6------------------
B-8-9-------------------------------
  Neeyonnu Vaadiyal Aaararum Kanatha
E-8-9-8----6-6-6----8-9-8----6-6-6--
  Nenjam Vingille
B-8-9/11-9-8-9\6--------------------
  Manimukilolam   Makal Valarnnalum
E------8-11-9\8-8-------8-11-9\8-8--
B-9-11------------9-11--------------
  Achante Ullilennum
E-8-9-8---6-8-6---------------------
B---------------9-------------------
  Avaloru Thaamara Thumpiyalle
E-----------6-----------------------
B-8-8-8-8-9---9----8-9-8-6----------
  Chellakkurumbu Kaati
E-8-9-8-6-8------6------------------
B------------------9----------------
  Chinungunna Chundari Vaavayalle
E---------------6-------------------
B-8-8-8-8-----9---9----8-9-8-6------


  Minungum Minnaminuge
B---6-6------6-6-8-8/9\8\6--------
G-5--------5----------------------
  Minni Minni Thedunnathare
B-6-6---6-------6-6-8-8/9\8\6-----
G---------5---5-------------------
  Varumo     Chare Ninnachan
B-8-11--11\9-8/9\8-8-8/9\8--8\6---

  Puthukanaval Mashiyezhuthi
E---6-8-6-8------6-8-6-8--
B-9------------9----------
  Mizhikalilaadyam
E---6-8-9-8\6-6-----------
B-9-----------------------
  Chirakukalil Kilukilungum
E-----6---6--------6---6--
B-8-9---9------8-9---9----
  Tharivalayeki
E-----6-------------------
B-8-9---9-8\6-6-----------
  Kunjichundil Ponnum Thenum
B-4-4/6\4-6-8--8-9/11-9-8-
  Thannu Maamooti
B-8-9/11-9-6-8---------
  Picha Picha Vekkan Koodi
B-4-4---6-6---8-9/11-9-8--
  Vannu    Kai Neeti
B-8-9/11\9-8---6--6-------

/ - slide up
\ - slide down