Malare - Premam (Malayalam) Song Guitar Notes

Movie  : Premam
Song   : Malare
Lyrics : Shabareesh Varma
Music  : Rajesh Murukesan
Singer : Vijay Yesudas

The 1st(E) and 2nd(B) strings are used.

  Thelimanam mazhavillin niramaniyum neram
B-4-5-5/7-7--7/9-9-9-7---4-5-5/7-7-7-7/9-9---
  Niramarnnoru kanavennil theliyunna pole
B-4-5-5/7-7-7--7/9-9-9-7--7-9-7---5--4\2-4---
  Puzhayoram thazhukunnee thanu neeran kaattum
B-4-5-5/7-7--7/9-9-9-7----4-5---5/7-7--7/9-9-
  Pulakangal izhaneythoru kuzhaloothiya pole
B-4-5-5/7-7--7/9-9-9-7----7-9-7--5-4----2--4-

  Kulirekum kanavennil  kathiradiya kaalam
E---2-2/6-6-6/7-7-7-7---6-7-6\4-2-2-2--2-----
B-4------------------------------------------
  Manathaaril madhumaasam thaliraadiya neram
E---2-2/6-6---6/7-7-7-7---6-7-7/9-9-7--7--7--
B-4------------------------------------------
  Akamarukum  mayilinakal thuyilunarum kaalam
E---2-2/6-6-6-6/7-7-7-7---6-7-6-4-2----2--2--
B-4------------------------------------------
  En akathaaril anuraagam pakarunna yaamam
E------2-2/6-6--6-7-7--7--6-7-7/9-7-7--7-----
B-4--4---------------------------------------
  Azhake
E---2-2/7------------------------------------
B-4------------------------------------------
  Azhakil theerthoru   shilayazhake
E-2-4-4/9-7/9-11-11/12-9-7-7-9-6-------------
  Malare
E-2-4-4/9------------------------------------
  Ennuyiril    vidarum    panimalare
E-9\7-7-9-9/11-9-11-11/12-9-7-7-7-7----------


  Malare     ninne kaanathirunnal
E-9-11-11/12-9\7-7-6-6-7-7-7------------------
  Mizhivekiya   niramellam maayunna pole
E-9-11-11-12-11-9-7-7--7---6-6/7-6--4\2-2-----
  Alivoden       arikathinnanayathirunnal
E-9-11-11-/12\11-9-7-7-7-6-6-6-7-7-7----------
  Azhakekiya     kanavellam akalunna  pole
E-9-11-11-/12\11-9-7-7--7---6-6-6/7-6-4\2-2-
  Njanente  aathmavin aazhathinullil
E-4/7-7\4-4-4/7-7\4-4-4/7-7\4-4-4/9-7---------
  Athilolamarorumariyaathe          sookshicha
E-4/7-7-7\4-4-4/7-7\4-4--7-9-9/11-9-7-6-4-----
  Thaalangal raagangal eenangalaai
E-4/7-7\4-4--4/7-7\4-4-4/7-7\4-4-7/9-7--------
  Oro oro   varnangalai
E-4/7-7\4-4-4/7-7\2-2-2/4/5\4-2---------------
  Idarunnorente  idanenjinullil
E-2-4-2--2-6-6/7-2-4-2--2-6-6/9---------------
  Pranayathin mazhayayi nee pozhiyunnee naalil
E-2-4-2-2-----11-9-7----7---9-7-6-4-----4--2--
  Thalarunnorente thanuthorum ninte
E-2-4-2--2-6-6/7--2-4-2-2-----6-6/9-----------
  Alathallum pranayathalunarum
E-2-4-2-2----11-9-7-7--9-7-6------------------
  Malare
E-4-4-4/9-------------------------------------
  Azhake
E---2-2/7-------------------------------------
B-4-------------------------------------------


  Kulirekum kanavennil  kathiradiya kaalam
E---2-2/6-6-6/7-7-7-7---6-7-6\4-2-2-2--2-----
B-4------------------------------------------
  Manathaaril madhumaasam thaliraadiya neram
E---2-2/6-6---6/7-7-7-7---6-7-7/9-9-7--7--7--
B-4------------------------------------------
  Akamarukum  mayilinakal thuyilunarum kaalam
E---2-2/6-6-6-6/7-7-7-7---6-7-6-4-2----2--2--
B-4------------------------------------------
  En akathaaril anuraagam pakarunna yaamam
E------2-2/6-6--6-7-7--7--6-7-7/9-7-7--7-----
B-4--4---------------------------------------
  Azhake
E---2-2/7------------------------------------
B-4------------------------------------------
  Azhakil theerthoru   shilayazhake
E-2-4-4/9-7/9-11-11/12-9-7-7-9-6-------------
  Malare
E-2-4-4/9------------------------------------
  Ennuyiril    vidarum    panimalare
E-9\7-7-9-9/11-9-11-11/12-9-7-7-7-7----------


/ - slide up
\ - slide down

13 comments:

  1. Nice Song...........I thoroughly enjoyed it........Thank you for sharing
    Listen Latest MP3 Hindi Songs

    ReplyDelete
  2. Thanks for letting me know :) :) Keep visiting for more songs :)

    ReplyDelete
    Replies
    1. any idea intro music (keyboard lines..)

      Delete
  3. Nice post.If anyone is searching for violin classes in Nagpur,then XFactor Nagpur is the best place for you.They had some best trainers for special training.

    ReplyDelete
  4. Wonderful Song Notes...............Thank you for sharing it with us ...........
    Download Hindi Songs | Download Zamantan Mp3 Song

    ReplyDelete
  5. SUPER MELODY. NICE WORK. SUPB WORK KEEP IT UP. THANKS FOR SHARING TABS

    ReplyDelete
  6. Replies
    1. Thank you for the feedback... Corrected some errors... I've updated the post... If there is any difficulty playing please let me know :) :)

      Delete
  7. Can someone guitar notations for this song, not tabs
    Thanks

    elbeortho@yahoo.co.in

    ReplyDelete
  8. Can someone guitar notations for this song, not tabs
    Thanks

    elbeortho@yahoo.co.in

    ReplyDelete
  9. anyway you could put it up as notes as well

    ReplyDelete