Har Ghadi Badal Rahi Hai - Kal Ho Naa Ho (Hindi) Song Guitar Notes


Song   : Har Ghadi Badal Rahi Hai
Movie  : Kal Ho Na Ho
Singer : Sonu Nigam
Music  : Shankar, Ehsaan and Loy
Lyrics : Javed Akhtar

The 1st(E) and 2nd(B) strings are used.

  Har ghadi badal rahi   hai  roop zindagi
E-8---7-8---7-8---7-8/10-10\8-7--5-7--5-7----
  Chaanv hai kabhi, kabhi  hai  dhoop zindagi
E-8---7--8---7-8----7-8/10-10\8-7--5--7--5-7-
  Har pal yahan
E-----5---7-5--------------------------------
B-8------------------------------------------
  Jee bhar jiyo jo hai samaa
E----------5-------5---8-5-------------------
B-6---8------8--8----------------------------
  Kal ho naa ho
E-----6--5-----------------------------------
B-6----------8-------------------------------

  Har ghadi badal rahi   hai  roop zindagi
E-8---7-8---7-8---7-8/10-10\8-7--5-7--5-7----
  Chaanv hai kabhi, kabhi  hai  dhoop zindagi
E-8---7--8---7-8----7-8/10-10\8-7--5--7--5-7-
  Har pal yahan
E-----5---7-5--------------------------------
B-8------------------------------------------
  Jee bhar jiyo jo hai samaa
E----------5-------5---8-5-------------------
B-6---8------8--8----------------------------
  Kal ho naa ho
E-----6--5-----------------------------------
B-6----------8-------------------------------


  Chaahe jo  tumhe poore dil se
E-7--8---/12-10-10-8-7---7---8----
  Milta    hai woh mushkil se
E-7-8-8/12-10--10--8-7-7---8--5---
B-------------------------------8-
  Aisa   jo koi  kahin hai
E-7/8-12-10-10-8-7-7---8----------
  Bas wohi  sabse    hasin hai
E-7-8-12-10-10-10--8-7-7---8--5---
B-------------------------------8-
  Uss haath ko tum thaam lo
E-----5---7-5--------5------------
B-8------------6---8-----8--------
  Woh meherbaan kal ho naa ho
E-----5---8-5-------6--5----------
B-8-------------6----------8------
  Har pal yahan
E-----5---7-5---------------------
B-8-------------------------------
  Jee bhar jiyo jo hai samaa
E----------5-------5---8-5--------
B-6---8------8--8-----------------
  Kal ho naa ho
E-----6--5------------------------
B-6----------8--------------------


  Palko  ke leke   saaye
E-7-8-10-5-----------------------------------
B-----------8--6\5-6--8----------------------
  Paas   koi jo  aaye
E-7/8-10-5---------5-------------------------
B----------8-6\5-6---------------------------
  Lakh   sambhalo     paagal    dil   ko
E-7/8-12-10-10-10\8\7-7/8-12-10-10-10-10\8\7-
  Dil dhadke      hi  jaaye
E-7-8-10-12-10/12-8\7-7--8---5---------------
B------------------------------8-------------
  Par soch lo is pal hai jo
E-----5--7-5---------5-----------------------
B-8-----------6--8-------8-------------------
  Woh daastan kal ho naa ho
E-----5---8-5-----6--5-----------------------
B-8-----------6----------8-------------------


  Har ghadi badal rahi   hai  roop zindagi
E-8---7-8---7-8---7-8/10-10\8-7--5-7--5-7----
  Chaanv hai kabhi, kabhi  hai  dhoop zindagi
E-8---7--8---7-8----7-8/10-10\8-7--5--7--5-7-
  Har pal yahan
E-----5---7-5--------------------------------
B-8------------------------------------------
  Jee bhar jiyo jo hai samaa
E----------5-------5---8-5-------------------
B-6---8------8--8----------------------------
  Kal ho naa ho
E-----6--5-----------------------------------
B-6----------8-------------------------------
  Har pal yahan
E-----5---7-5--------------------------------
B-8------------------------------------------
  Jee bhar jiyo jo hai samaa
E----------5-------5---8-5-------------------
B-6---8------8--8----------------------------
  Kal ho naa ho
E-----6--5-----------------------------------
B-6----------8-------------------------------


/ - slide up
\ - slide down

List of Hindi Guitar Tabs/Notes


  1. Abhi Mujh Mein Kahin - Agneepath View
  2. Pani da Rang - Vicky Donor View
  3. Tum Hi Ho - Aashiqui 2 View

List of Malayalam Guitar Tabs/Notes


  1. Thumbi Penne - Bangalore Days View
  2. Mukkathe Penne - Ennu Ninte Moideen View
  3. Malare - Premam View
  4. Neeraduvan - Nakhakshathangal View
  5. Theruvukal nee - Njan Steve Lopez View
  6. Fish Rock - Thaikkudam Bridge View
  7. Aayiram Kannumaayi - Nokketha Doorathu Kannum Nattu View
  8. Nostalgia 2 - Thaikkudam Bridge View
  9. Azhalinte azhangalil - Ayalum Njanum Thammil View
  10. Ethrayo Janmamayi - Summer in Bethlehem View
  11. Ethu Kari Raavilum - Bangalore Days View
  12. Neer palunkin - Vegam View
  13. Mazhaneerthullikal - Beautiful View
  14. Oru Venal Puzhayil - Pranayakalam View
  15. Kanneer Poovinte - Kireedam View
  16. Nostalgia by Thaikkudam Bridge View
  17. Ettam Pattu - Avial View
  18. Olanjali Kuruvi - 1983 View
  19. Mazha Kondu Mathram - Spirit View
  20. Muthuchippi Poloru - Thattathin Marayathu View

How to read Guitar Tabs - II

In last post, How to read Guitar Tabs - I, we've discussed about the basic form of Guitar Tabs and how it is read. In this post, we'll talk about most important symbols mainly occurring in Guitar Tabs.

1. Slides

Slides are performed by striking a note and moving the fretting hand up or down the same string to another note. The two types of slides we perform are

(i) Ascending Slide (/): They are represented by a forward slash '/'. The note written before the slash is played with picking hand and the fretting hand finger slides up towards the note written after the slash.

Eg: A 2/6 on Guitar Tab means the 2nd fret is to be played and the fretting hand slides up to 6th fret.

(ii) Descending Slide (\): They are represented by a backward slash '/'. The note written before the slash is played with picking hand and the fretting hand finger slides down towards the note written after the slash.

Eg: A 6\2 on Guitar Tab means the 6th fret is to be played and the fretting hand slides down to 2nd fret.

(iii) Combined slides: It can be played by striking the first note, and sliding remaining notes by the fretting hand without taking the hand off from the fret board.

Eg: A 5/8\6 on Guitar Tab shows us to play 5th fret, slide up to 8th fret and slide back to 6th fret all without taking hand off from fret board but just by sliding.


2. Hammer-ons

Hammer-ons are indicated by an 'h' in Guitar Tabs. To play hammer-ons play the first note and then tap the finger on fretting hand to next note.

Eg: 7h9 on Guitar Tab means, play the note on fret 7, tap the 9th fret with another finger on fretting hand. This rings out the note on 9th fret. When tapping the 9th fret, the finger already on 7th fret remains there itself.


3.Pull offs

Pull offs are opposite of hammer-ons. Play the first note, use another finger to fret and quickly lift fretting finger from fret board. This will ring out the second note.

Eg: 6p4 on Guitar Tab means, play the note on fret 6, fret the 4th fret with another finger and quickly pull off the finger on 6th fret. When its learned, the fretting of 4th fret and pull off from 6th fret occur almost simultaneously.


Hope this helps to read the tabs correctly, leave comments below and keep visiting for more...... 

Abhi Mujh Mein Kahin - Agneepath (Hindi) Song Guitar Notes

Song   : Abhi Mujh Mein Kahin
Movie  : Agneepath
Singer : Sonu Nigam
Music  : Ajay Gogavale, Atul Gogavale
Lyrics : Amitabh Bhattacharya

The 2nd(B) and 1st(E) strings are used.

  Abhi mujh     mein kahin
B-7-10-10/12-10-8\7--7-10-----------------
  Baaki     thodi   si hai    zindagi
B-10/12-8\7-8-10/12-10-7/10\8-7\5-5-5/7---
  Jagi dhadkan      nayi
B-7-10-10/12-10-8\7-7-10------------------
  Jaana     zinda   hoon main   toh abhi
B-10/12-8\7-8-10/12-10---7/10\8-7\5-5-5/7-

  Kuch aisi lagan
E---5--7--9-9/10-7\5---------------
B-7--------------------------------
  iss lamhe   mein hai
E---5-7-7-9-9/10-7\5---------------
B-7--------------------------------
  Yeh  lamha kahaan tha mera
E---5--7-7-9-10-9\7-9---10-9-10/12-
B-7--------------------------------

  Ab hai saamne
E-10-12-12/14-12-10-9\7------------------
  Ishe  chhuu loon zara
E-10-12-12/14-12---10-9\7----------------
  Marr jaaun ya    jee loon  zaraaa
E-9-10-9\7-9-10/14-12--10-\9-9-9/10---\9-
  Khushiyaan  choom loon
E-10-12-12/14-12-10-9\7-------------
  Yaa ro loon     zara
E-10--12-12/14-12-10-9\7------------
  Marr jaaun ya    jee loon  zaraa
E-9-10-9\7-9-10/14-12--10-\9-9-9/10-

  Abhi mujh     mein kahin
B-7-10-10/12-10-8\7--7-10---------------
  Baaki     thodi   si hai    zindagi
B-10/12-8\7-8-10/12-10-7/10\8-7\5-5-5/7-


  Dhoop mein jalte hue tann koo
E-10--9------7-8---7-----------------------
B-------10-----------8-7-8--8/10-----------
  Chhaya       ped   ki      mil gayi
B-10-10/12--\7-7--12-10/12\7-7\5-5-5/7-----
  Roothe bacche ki  hasi  jaisi
E-10---9-----7--7/8-7----------------------
B--------10-----------8---7h8-8/10---------
  Phuslane           se phir    khil gayi
B-10-10-10/12--\7-7--12-10/12\7-7\5--5-5/7-
  Kuch aisa   hi ab   mehsoos  
B---5--7/10-9-10-9-10-9-10-9--10-----------
G-7----------------------------------------
  dil  ko   ho   raha  hai
B-9-10-9h10-9/10-9-7\5---------------------
G----------------------7-------------------
  Barson   ke puraane      zakhmon
B---5-7/10-9--10-9h10-9h10-9-9h10----------
G-7----------------------------------------
  pe   marham     laga    sa hai
B-9h10-9-10-10/14-12-10\8-7--5/7-----------
G------------------------------------------

  Kuch aisa rahan
E---5--7--9-9/10-7\5-------------
B-7------------------------------
  iss lamhe mein hai
E---5-7-7-9-9/10-7\5-------------
B-7------------------------------
  Yeh  lamha kahaan tha mera
E---5--7-7-9-10-9\7-9---10/14-12-
B-7------------------------------

  Ab hai saamne
E-10-12-12/14-12-10-9\7--------------------
  Ishe  chhuu loon zara
E-10-12-12/14-12---10-9\7------------------
  Marr jaaun ya    jee loon  zaraaa
E-9-10-9\7-9-10/14-12--10-\9-9-9/10-----\9-
  Khushiyaan  choom loon
E-10-12-12/14-12-10-9\7-------------
  Yaa ro    loon zara
E-10--12/14-12---10-9\7-------------
  Marr jaaun ya    jee loon  zaraa
E-9-10-9\7-9-10/14-12--10-\9-9-9/10-


  Dor  se tooti patang jaisi
E-10-9----7-8---7------------------------
B------10---------8----7-8--8/10---------
  Thi yeh       zindagaani      meri
B-10--10/12--\7-7--12-10/12-7\5-5-5/7----
  Aaj  hoon kal ho mera naho
E-10-9------7---8--7---------------------
B------10------------8--7h8-8/10---------
  Har din thi       kahaani        meri
B-10-10-10/12--\7-7-12-10/12\7-7\5-5-5/7-
  Ek bandhan naya    peeche seh
B---5-7/10-9-10-9h10-9h10-9-10-----------
G-7--------------------------------------
  ab   mujhko    bulaye
B-9h10-9h10-9/10-9-7/5-------------------
G----------------------7-----------------
  Aane     wale kal  ki   kyun fhikar
B---5-7/10-9-10-9-10-9/10-9----10-9-10---
G-7--------------------------------------
  mujhko     sataa jaaye
B-9-10-10/14-10-12-8-7-------------------

  Ik  aisi chubhan
E---5-7--9-9/10-7\5-----------------------
B-7---------------------------------------
  iss lamhe mein hai
E---5-7-7-9-9/10-7\5----------------------
B-7---------------------------------------
  Yeh  lamha kahaan tha mera
E---5--7-7-9-10-9\7-9---10-9-10/12--12/14-
B-7---------------------------------------

  Ab hai saamne
E-10-12-12/14-12-10-9\7-----------------------
  Ishe  chhuu loon zara
E-10-12-12/14-12---10-9\7---------------------
  Marr jaaun ya    jee loon zaraaa
E-9-10-9\7-9-10/14-12--10---12/14-12/14----12-

  Khushiyaan  choom loon
E-10-12-12/14-12-10-9\7-----------
  Yaa ro loon     zara
E-10--12-12/14-12-10-9\7----------
  Marr jaaun  ya  jee loon  zaraa
E-9-10-9\7----7\5-----------------
B----------10-----8\7-7-----8-5/7-

/ - slide up
\ - slide down
h - hammer on

How to read Guitar Tabs - I

Guitar Tab or Tablature is a system of notation which enables guitarists to play music with simple symbols. Even though it stands nowhere near the standard sheet music (which is a little difficult to learn and master), it has enabled guitarists to quickly share music in internet. There is a lot of information regarding how to read/write tab across web, but there are a few essential things which are commonly seen in tabs and should be learned by all guitarists.

The tab overview

E---------------------------->Thinner E(1st) string
B----------------------------
G----------------------------
D----------------------------
A----------------------------
E---------------------------->Thicker E(6th) string

The basic format of a guitar tab is as shown above. The tab layout is like if we were looking the fretboard from the top while playing the guitar. The thicker string is near to us and the thinner string is away from the player. Each line represents each string of the guitar with the beginning of the line showing the names of open strings.

Play simple notes:

Guitar tabs donot represent notes but fret numbers. This means each number in the tab represents a fret in the guitar.
A zero (0) indicates open string. So to play it, just play the string in open.
Any number greater than zero 1,2,3....etc shows fret number starting from guitar nut. Thus one (1) on the tab shows note on first fret of the particular string. The following example will show this idea much better.

E----------------------------
B----------------------------
G-------0-2------------------
D-0-2-3----------------------
A----------------------------
E----------------------------

The tab is read from left to right.
The first number is 0 on the D string. Which means we should play an open note on the D string.
Number 2 on D string so play the note on second fret, D string. Similarly the remaining part.

Note:
1. The Guitar tab may not indicate the timing ie. the duration by which you have to hold the note. For playing songs hearing the song and looking at the lyrics given along with the tab(if available) will help on how to read the tab better.

2. At Notes4Songs, you will find that tabs with notes only in 2 or 3 strings will be simply shown as below with a line written above telling which strings are used in the particular song.This makes the tab compact and easy to read.

"The 3rd(G) and 4th(D) strings are used.

 G-------0-2------------------
 D-0-2-3----------------------          "
The next part (How to read Guitar Tabs - II) of this will include how to play slides, hammer-ons, pullofs etc which are always seen in tabs and also on how to play the tab given along with lyrics with examples.

Hope you found this useful and will help you play guitar better, leave comments below and keep visiting for more......

Thumbi Penne - Bangalore Days (Malayalam) Song Guitar Notes

Song   : Thumbi Penne
Movie  : Bangalore Days
Singer : Siddharth Menon
Music  : Gopi Sundar
Lyrics : Santhosh Varma

2nd(B) and 1st(E) strings are used.

  Thumbi penne  kothiyille neril kaanan
E-9--9---9-9/12-9-7-7--7---7--7--7h9-7--
  Vannitunde En  velipennu
E-9-9-9-9/12-7\5---5-7/9-7--------------
B----------------7----------------------
  Kavilathunde Kannadithundu
E-9-9-9-9-9/12-5-5-7-7/9-7--------------
  Chundathunde Chingarachendu
E-9---9-9-9/12-5-5-7-7/9-7--------------

  Neelakaayalupol    thonum omal pennanu
E-9-10-10/12-10-9-----------9-10-9--------------
B-----------------12-10-12---------12-10--------
  Mudi kaarmukilum   tholkum nadan chelanu
E-9-10-10/12-10-9------------9-10--9------------
B-----------------12-10-12-----------12-10------
  Konde poraam pennale    ponnonakaalathu
E-9------------9----------9-7-9-9/12-10-9-------
B---12--7-10-----10-10/12-----------------------
  Kannonnanjum kanaale    nee kaanumnerathu
E-9------------9----------9---7-9-9/12-10-9-----
B---12--7-10-----10-10/12-----------------------
  Thankathaamarapol  poonthen chinthum nenjanu
E-9-10-10/12-10-9-------------9-10-----9--------
B-----------------12-10-12---------------12-10--
  Chellatharakalum   pennum pande kootanu
E-9-10-10/12-10-9-----------9-10--9-------------
B-----------------12-10-12----------12-10-------


  Pularikilikal     kaathoram konchum pole
E----------------------------------------9----------
B-10-10-10-10-10-10-7--7--10--10-12---12------------
  Pulakam vitharum chenchillam mozhiyane   hoi
E-9-12-9--9-12-9---9-12--9-----9----------9---------
B--------------------------------12-12-12---12-10---
  Kuliril  viriyum  poomulla  poovum kondu
E----------------------------------------9----------
B-10-10-10-10-10-10-7--7--10--10-12--12-------------
  Hrudhayam pothiyum punchiriyaanee
E-9-12-9----9-12-9---9-12-12-14-14/16-----14-14/16--
  Hoo onavale       ninachale   mazha pozhiyum
E-7/9-9----------------------------7--9/10-9-7------
B-------12-10-10/12-10-10-7-7/9-10------------------
  Ho hoo kanmaniye     nee kandaate
E-5--7/9-9--------------------12-9\7----------------
B----------12-10-10/12-10--10-----------------------

  Neelakaayalupol    thonum omal pennanu
E-9-10-10/12-10-9-----------9-10-9--------------
B-----------------12-10-12---------12-10--------
  Mudi kaarmukilum   tholkum nadan chelanu
E-9-10-10/12-10-9------------9-10--9------------
B-----------------12-10-12-----------12-10------
  Konde poraam pennale    ponnonakaalathu
E-9------------9----------9-7-9-9/12-10-9-------
B---12--7-10-----10-10/12-----------------------
  Kannonnanjum kanaale    nee kaanumnerathu
E-9------------9----------9---7-9-9/12-10-9-----
B---12--7-10-----10-10/12-----------------------
  Thankathaamarapol  poonthen chinthum nenjanu
E-9-10-10/12-10-9-------------9-10-----9--------
B-----------------12-10-12---------------12-10--
  Chellatharakalum   pennum pande kootanu
E-9-10-10/12-10-9-----------9-10--9-------------
B-----------------12-10-12----------12-10-------


  Nagarathirayil    neeradi   padikondu
E----------------------------------------9---------
B-10-10-10-10-10-10-7--7--10--10-12---12-----------
  Ozhukum arayannam polen     pennale
E-9-12-9--9-12-9-12-12/14-12--9------------9-------
B-------------------------------12-12--------12-10-
  Thodiyil kaliveedundakum    kaalam thotte
E----------------------------------------9---------
B-10-10-10-10-10-10-7--7--10--10-12--12------------
  Pathivaay kanavil njan kandollee..
E-9-12-9----9-12-9---9---12-14-14/16-----14-14/16--
  Hoo ennuvare      ivalkaayen  manam thudiche
E-7/9-9----------------------------7--9/10-9-7-----
B-------12-10-10/12-10-10-7-7/9-10-----------------
  Oren   kanmaniye     nee kandaate
E-5--7/9-9--------------------12-9\7---------------
B----------12-10-10/12-10--10----------------------

  Thumbi penne  kothiyille neril kaanan
E-9--9---9-9/12-9-7-7--7---7--7--7h9-7--
  Vannitunde En  velipennu
E-9-9-9-9/12-7\5---5-7/9-7--------------
B----------------7----------------------
  Kavilathunde Kannadithundu
E-9-9-9-9-9/12-5-5-7-7/9-7--------------
  Chundathunde Chingarachendu
E-9---9-9-9/12-5-5-7-7/9-7--------------

  Neelakaayalupol    thonum omal pennanu
E-9-10-10/12-10-9-----------9-10-9--------------
B-----------------12-10-12---------12-10--------
  Mudi kaarmukilum   tholkum nadan chelanu
E-9-10-10/12-10-9------------9-10--9------------
B-----------------12-10-12-----------12-10------
  Konde poraam pennale    ponnonakaalathu
E-9------------9----------9-7-9-9/12-10-9-------
B---12--7-10-----10-10/12-----------------------
  Kannonnanjum kanaale    nee kaanumnerathu
E-9------------9----------9---7-9-9/12-10-9-----
B---12--7-10-----10-10/12-----------------------
  Thankathaamarapol  poonthen chinthum nenjanu
E-9-10-10/12-10-9-------------9-10-----9--------
B-----------------12-10-12---------------12-10--
  Chellatharakalum   pennum pande kootanu
E-9-10-10/12-10-9-----------9-10--9-------------
B-----------------12-10-12----------12-10-------


/ - slide up
\ - slide down
h - hammer on