Mukkathe Penne - Ennu Ninte Moideen (Malayalam) Song Guitar Notes

Song     : Mukkathe Penne
Movie    : Ennu Ninte Moideen (2015)
Singer(s): Mohammad Maqbool Mansoor, Gopi Sundar
Music    : Gopi Sundar
Lyricist : Mohammad Maqbool Mansoor

The 2nd(B) and 1st(E) strings are used.


(Sa ma ga pa...)

B-3--8-7--10-8-13-11-10------

B-7-8-10-8-7-4-1-3-----------

B-3--8-7--10-8-13-11-10------

B-7-8-10-8-7-4-1-3-----------

E-------5-10/11-10-8-6-5-6/8-
B-3-7-8----------------------

E-------5-10-8-6-5-6/8-6-----
B-3-7-8----------------------

E-------5-10/11-10-8-6-5-6/8-
B-3-7-8----------------------

B-8-10-10/11-10-8-8-7--------

B-1-3-3/8-7-4-1-3------------

B-1-3-3/8-7-4-1-3------------


  Ennile    ellinnaal padacha penne
E-8/10-8-10-10-8-10---8-6-5---6/8-8------
  Mukkathe mannilayi piranna  penne
E-5-6-6/8--8-8-8\6---6-8-8/10-10-10------
  Ennile    roohiley palkuthiyalle
E-8/10-8-10-10-8-10--10-15-14-11-10\8\6--
  Ennile nooraayi nee niranjathalle
E-5-6-8--8--8-----6---6-8-8/10-10-10-----
  Ennile      velichavum neeye
E-10-14-14/15-14-15-14---11-10\8\6-------
  Muthayi nee minnana     maalayalle
E-6-8-----10--10-11-11/14-10/11-10-10-10-
  Ennile      ishkintey noore
E-10-14-14/15-14-15-14--11-10\8\6--------
  Aarum kaana oliyum   neeye
E-6--8--8--10-10-14-11-10--10------------
  Ente kithabile      penne
E-8-10-10-10/15-14-11-8-8/10-------------
  Ente kithabile      penne
E-8-10-10-10/15-14-11-8-8/10-------------



(Sa ma ga pa...)

B-3--8-7--10-8-13-11-10-

B-7-8-10-8-7-4-1-3------

B-3--8-7--10-8-13-11-10-

B-7-8-10-8-7-4-1-3------

E-------5-10/11-10-8-6-5-6/8-
B-3-7-8----------------------

E-------5-10-8-6-5-6/8-6-----
B-3-7-8----------------------

E-------5-10/11-10-8-6-5-6/8-
B-3-7-8----------------------

B-8-10-10/11-10-8-8-7--------

B-1-3-3/8-7-4-1-3------------

B-1-3-3/8-7-4-1-3------------


  Ennile    ellinnaal padacha penne
E-8/10-8-10-10-8-10---8-6-5---6/8-8------
  Mukkathe mannilayi piranna  penne
E-5-6-6/8--8-8-8\6---6-8-8/10-10-10------
  Ennile    roohiley palkuthiyalle
E-8/10-8-10-10-8-10--10-15-14-11-10\8\6--
  Ennile nooraayi nee niranjathalle
E-5-6-8--8--8-----6---6-8-8/10-10-10-----
  Ennile      velichavum neeye
E-10-14-14/15-14-15-14---11-10\8\6-------
  Muthayi nee minnana     maalayalle
E-6-8-----10--10-11-11/14-10/11-10-10-10-
  Ennile      ishkintey noore
E-10-14-14/15-14-15-14--11-10\8\6--------
  Aarum kaana oliyum   neeye
E-6--8--8--10-10-14-11-10--10------------
  Ente kithabile      penne
E-8-10-10-10/15-14-11-8-8/10-------------
  Ente kithabile      penne
E-8-10-10-10/15-14-11-8-8/10-------------


/ - slide up
\ - slide down

17 comments:

  1. Adipoly...and Thanks

    ReplyDelete
  2. Thanks for sharing post.XFactor Nagpur is famous for best guitar classes in Nagpur.For more details,visit us today.

    ReplyDelete
  3. pwolichu thx guyyzz

    ReplyDelete
  4. I got confused with the ////, can you please clarify that notes?

    ReplyDelete
  5. Got it.... Thankz

    ReplyDelete
  6. Replies
    1. What are the codes I can't understand it???????
      Pls help!!!!!!!!!!!!!!!!

      Delete
  7. Thank you all for the comments :) Those who do not understand how to read it, please read:
    http://notes4songs.blogspot.com/2016/05/how-to-read-guitar-tabs-i.html

    ReplyDelete
  8. Pls show the tabs for d song "my love" by westlife..pls..

    ReplyDelete
  9. plz post unarumee ganam with the starting tune

    ReplyDelete
  10. Thank you bro.. very nyc tabs..

    ReplyDelete