Nostalgia by Thaikkudam Bridge (Kappa TV Music Mojo) Guitar Notes

Nostalgia Thaikkudam Guitar Tabs
Artist   : Thaikkudam Bridge
Album    : Nostalgia
Singer(s): Siddharth Menon, Govind Menon, Vipin Lal, Christin Jose

The song is in 2nd(B) and 1st(E) strings.

Mandara Cheppundo

 Mandara cheppundo
E-7-12-7--5-7-5-------------------

 Manikya kallundo
E-7-12-7--5-7-5-------------------

 Kayyil vaarmathiyee
E-7-7---5--3-2--------------------
B----------------3----------------

 ponnum thenum vayambumundo
E---0---0--0---0-0--3-0-2---------
B-0-------------------------------

 vanambaadi than thoovalundo
E---0--0--0-0----7--3/5-2---------
B-0-------------------------------

 ullil  aamoda thirakal uyarumbol
E-2-2/5-3-2-2--2-3-3/5--3-2-2-2---

 mounam paadunnu
E-3-2p0-0-0-0---------------------(slow  intro)

 Mandara cheppundo
E-7-12-7--5-7-5-------------------

 Manikya kallundo
E-7-12-7--5-7-5-------------------

 Kayyil vaarmathiyee
E-7-7---5--3-2--------------------
B----------------3----------------

 ponnum thenum vayambumundo
E---0---0--0---0-0--3-0-2---------
B-0-------------------------------

 vanambaadi than thoovalundo
E---0--0--0-0----7--3/5-2---------
B-0-------------------------------

 ullil  aamoda thirakal uyarumbol
E-2-2/5-3-2-2--2-3-3/5--3-2-2-2---


 mounam paadunnu
E-3-2p0-0-0-0---------------------(2)

Pachakkarikkaya Thattil 

 Pachakkarikkaya thattil
E-0-0-7-7-7/8----5-5/7------------------

 Oru  muthassipottatto chollee
E-7-7-5--7-5--3--2--3--0-2/5\2----------

 Kunjole  Kumbalee maamundu chanchad...
E------------------2--3--5--3-2/3-2p0---
B-5-5/7-2-2-2/7-7-----------------------(2)


 Vellaripinchu polum
E-0-0-9--9-9---9-9----------------------

 chumma  kallakkanneerozhukki
E-9-9/12-10-9-10-9---9-9-9--------------

 Thakkalee   Pappaleee
E-7-6-7-7/10-7-6-7-7/10-----------------

 Achinga machinga peechingayodothu
E-7-6-7--10-7-10--12-10-12-7-3-2--------

 Picha nadannu chollee
E--------3-2---0--0---------------------
B-3-3--3--------------------------------(1)


 Kunjole  Kumbalee maamundu chanchad...
E------------------2--3--5--3-2/3-2p0---
B-5-5/7-2-2-2/7-7-----------------------(2)


Allimalarkkavil

 Allimalar kaavil pooram kaanaan
E-0-0-2-0--2--2---2/7-3--5--2p0---------

 Annu nammal poyi raavil nilaavil
E-0-0-2-0----2--2-2/7-3--3-3/5\2-0------

 Dooreyoraalmara chottilirunnu
E-5/9-9-9-9--9-9-7/10-9-7-7-7\5/7-------

 Maarivil gopura maalika  theerthu
E-5/9-9-9-9--9-9-5/10-9-7-7---7---------

 Athil naamonnaay  aadi  paadee
E-3-5--5/9-9/12-12-5\3/5-2--0-----------


 Allimalar kaavil pooram kaanaan
E-0-0-2-0--2--2---2/7-3--5--2p0---------

 Annu nammal poyi raavil nilaavil
E-0-0-2-0----2--2-2/7-3--3-3/5\2-0------


Chinkara kinnaram

 Chinkara kinnaram chirichukonchunna manikkurunney vaa
E-3-5-5/7-5--3--2--2-3-3/5-3--2--0---0-2-3--2-0-----0--
B-----------------------------------------------3------

 Punnaaram.....Punnaaram.....
B-0-3--3/5-----0-3--3/5--------------------------------

 Kurumburagumi  kurunnu chundathe manipathakkam thaa
E-3-5-5/7-5-3-2-2-3-3/5-3--2--0---0-2-3--2-0-----0-----
B---------------------------------------------3--------

 Ammaanam.....Ammaanam.....
B-0-3--3/5----0-3--3/5---------------------------------

 Kunjikkulirambiliye chellacherukumbilile
E-1-7-5/7--10-7-5-7--1-7-5/7----10-7-5-7---------------

 Mammamaamundu  minnaaram kandu minna minniyay vaa
E-7-7/10-10-7-5-5-5/9--7--5\3---3-3/7-5--3--2--0-------

 Vavavo.....vavavo.....
B-0-3--3/5-----0-3--3/5--------------------------------



 Chinkara kinnaram chirichukonchunna manikkurunney vaa
E-3-5-5/7-5--3--2--2-3-3/5-3--2--0---0-2-3--2-0-----0--
B-----------------------------------------------3------

 Punnaaram.....Punnaaram.....
B-0-3--3/5-----0-3/8\7\5-------------------------------



If anyone could send me the notes for final jamming I will post it with credits..... Keep visiting and enjoy guitar :)

10 comments:

  1. THANKS SREEHARI........ PLZ ADD ILAYANILA

    ReplyDelete
  2. can i get the notes of this on violin?

    ReplyDelete
  3. Any chance to get this song in staff notations?
    Great work here. Greatly appreciste your efforts

    ReplyDelete
  4. awesome
    plz add piano notes too

    ReplyDelete
  5. Pls give me the final jamming notes too.....

    ReplyDelete
    Replies
    1. this a good song iam a guitarist my name is leonok goodnight

      Delete
  6. can we get the violin music note of this song?

    ReplyDelete
  7. This comment has been removed by the author.

    ReplyDelete