Kanneer Poovinte - Kireedam (Malayalam) Song Guitar Notes

Kanneer Poovinte Guitar Tabs

Movie  : Kireedam
Song   : Kanneer poovinte
Lyrics : Kaithapram Damodaran Namboothiri
Music  : Johnson Master
Singer : M.G Sreekumar

One of my favourite in evergreen Malayalam hits..... Heart touching composition by Sri Johnson Master.

The song is in 2nd(B) string.


Kanneer poovinte kavilil    thalodi
5-5/12--12-12-10-8-10-10/12-10-8\7-8---

eenam  muzhangum pazham  paattil mungi
5-5/15-12-12--12-10-8/10-12--10--8\7-8-



Kanneer poovinte kavilil    thalodi
5-5/12--12-12-10-8-10-10/12-10-8\7-8---

eenam  muzhangum pazham  paattil mungi
5-5/15-12-12--12-10-8/10-12--10--8\7-8-

maruvaaku   kelkkaan kaatthu nilkkathe
5-5-5/10-10-8\7-8----5--5/10-10-8\7-8--

poothumbiyenthe  maranju
3-3/5-5-5/8-7\5--5-5--5----------------

ente      pullorkkudam pole  thengi
3/5-3p0-0-0-5-5-5/10--10--12-8\7-5-----


Kanneer poovinte kavilil    thalodi
5-5/12--12-12-10-8-10-10/12-10-8\7-8---

eenam  muzhangum pazham  paattil mungi
5-5/15-12-12--12-10-8/10-12--10--8\7-8-



unni        kidavinnu       nalkaan
14-14/15\14-12-12--12\10-10-10-10/12------

amma     nenjil      paalazhiyenthi
12\10-10-10/12-12/15-14/15-17-19-15\14-12-

aaayiram    kaineetti   ninnu
14-15-14\12-12-12\10-10-10-10/12----------

soorya   thaapamayi  thaathante  shokham
12\10-10-10/12-15-15-14/15-17-19-15\14-12-

vida  chollave    nimishangalil
12-12-14/15-14-15-12-12-14/15-14-15-------

jalarekhakhal        veenalinju
14-15-17/19-17-15\14-10/15-12-8-7---------

kanivekumee   venmeghavum
5-5-5/10-9-10-10/12-10-8-7----------------

mizhineerkkinavayi maranju
3-3-3/5-5-5/8-7\5--5-5--5-----------------

doore     pullorkkudam kenurangi
3/5-3p0-0-0-5-5-5/10---10--12-8\7-5-------


Kanneer poovinte kavilil    thalodi
5-5/12--12-12-10-8-10-10/12-10-8\7-8---

eenam  muzhangum pazham  paattil mungi
5-5/15-12-12--12-10-8/10-12--10--8\7-8-



oru   kunju       paattayi vithumbee
14-14-14/15\14-12-12-12\10-10-10-10/12-------

manju    pooncholayentho thiranju
12\10-10-10/12-12/15-15-14/15-17-19-15\14-12-

aareyo      thedi    pidanju
14-15-14\12-12-12\10-10-10-10/12-------------

kaattumorupaadu         naalayalanju
12\10-10-10/12-12/15-15-14/15-17-19-15\14-12-

Poonthennalil   ponnolamaay
12--14/15-14-15-12--14/15-14-15--------------

oru   pazhkkireedam        maranjnu
14-15-17/19-17-15\10-10/15-12-8-7------------

kadhanangalil thunayaakuvaan
5-5-5/10-9-10-10-12--10-8-7------------------

veruthe orungunna mounam
3-3-3/5-5-5/8-7\5--5-5--5--------------------

engo      pullorkkudam pole vingi
3/5-3p0-0-0-5-5-5/10---10--12-8\7-5----------


Kanneer poovinte kavilil    thalodi
5-5/12--12-12-10-8-10-10/12-10-8\7-8---

eenam  muzhangum pazham  paattil mungi
5-5/15-12-12--12-10-8/10-12--10--8\7-8-

maruvaaku   kelkkaan kaatthu nilkkathe
5-5-5/10-10-8\7-8----5--5/10-10-8\7-8--

poothumbiyenthe  maranju
3-3/5-5-5/8-7\5--5-5--5----------------

ente      pullorkkudam pole  thengi
3/5-3p0-0-0-5-5-5/10--10--12-8\7-5-----


/ - slide up
\ - slide down

1 comment: