Mazhaneerthullikal - Beautiful (Malayalam) Song Guitar Notes

Mazhaneerthullikal Guitar Tabs
Movie  : Beautiful
Song   : Mazhaneer Thullikal
Lyrics : Anoop Menon
Music  : Ratheesh Vegha
Singer : Unnimenon

The song is in 2nd(B) string.

Mazhaneer thullikal nin thanuneer muthukal
2-5-5/7---7--7-7----5\2-2-5-5/7---7-7/9-5----

thanuvaayi peythidum kanavaayi thornnidum
2-5-5/7----7--7-7--5-2-5-5/7---7-7/12-10-----

venshankile laya gandharvamaayi
7/10-10-5-7-5-7--7/10-10-5-7-----------------

neeyente   saarankiyil          ithalidum
7/10-10-10-10/12\10-12-12/14-10-5-7-10-10/12-

naanathin   thenthulliyaayi
12/14-14-14-12\10-7-12-10/12---------10\7----

kathiridum   mohathin    ponnolamaayi
5-7-10-10/12-12/14-14-12-10\7-7-12-10/12-----

Mazhaneer thullikal nin thanuneer muthukal
2-5-5/7---7--7-7----5\2-2-5-5/7---7-7/9-5----

thanuvaayi peythidum kanavaayi thornnidum
2-5-5/7----7--7-7--5-2-5-5/7---7-7/12-10-----



raamegham-pole   vin thaaram pol
2-5-5/7--5-7-5\2-2-5-5/7--7--7/10---------------

neeyenthe akale nilpoo...
2-5-5/7-5-2-0-0-0-2/5--\2-----------------------

kaathare       nin chundile
12/14-14-12\10-7---10/12-12-12\10/12------------

sandhyayil        alinjidaaam
12/14--14-12\10\7-7-10/12-12-12-----------------

piriyum     chandralekha      enthino
10-12-12/14-14/17-17-17\14-14-14\12-12-12\10/12-

kathuninnennorthunjaaan
7/12-10-7\5---5-5/7-5-2-------------------------


Mazhaneer thullikal nin thanuneer muthukal
2-5-5/7---7--7-7----5\2-2-5-5/7---7-7/9-5----

thanuvaayi peythidum kanavaayi thornnidum
2-5-5/7----7--7-7--5-2-5-5/7---7-7/12-10-----



thoo manjile      veyil naalam pol
2----5/7--5-7-5\2-2-5---5/7--7-7/10-------------

nin kannilen chumbanam
2---5/7-5-2p0-0-0-2/5--\2-----------------------

thoovalaayi       pozhinjoree
12/14--14-12\10\7-7-10/12-12-12\10/12-----------

aardramaam        nilaa   kulir
12/14--14-12\10\7-7-10/12-12-12-----------------

anayum      njaattuvela       enthino
10-12-12/14-14/17-17-17\14-14-12/14-12-12\10/12-

oru  maathra  kaathennorthu njaan
7-10-10/12-10-7\5---5-5/7-5-2-------------------


Mazhaneer thullikal nin thanuneer muthukal
2-5-5/7---7--7-7----5\2-2-5-5/7---7-7/9-5----

thanuvaayi peythidum kanavaayi thornnidum
2-5-5/7----7--7-7--5-2-5-5/7---7-7/12-10-----

venshankile laya gandharvamaayi
7/10-10-5-7-5-7--7/10-10-5-7-----------------

neeyente   saarankiyil          ithalidum
7/10-10-10-10/12\10-12-12/14-10-5-7-10-10/12-

naanathin   thenthulliyaayi
12/14-14-14-12\10-7-12-10/12---------10\7----

kathiridum   mohathin    ponnolamaayi
5-7-10-10/12-12/14-14-12-10\7-7-12-10/12-----



Mazhaneer thullikal nin thanuneer muthukal
2-5-5/7---7--7-7----5\2-2-5-5/7---7-7/9-5----

thanuvaayi peythidum kanavaayi thornnidum
2-5-5/7----7--7-7--5-2-5-5/7---7-7/12-10-----


/ - slide up
\ - slide down

No comments:

Post a Comment