Nostalgia 2 by Thaikkudam Bridge (Kappa TV Music Mojo) Guitar Notes

Nostalgia 2 Thaikkudam Guitar Tabs
Artist   : Thaikkudam Bridge
Album    : Nostalgia 2 (Kappa TV Music Mojo Season 3)
Singer(s): Siddharth Menon, Govind Menon, Vipin Lal, Christin Jose

The 2nd(B) string is used.

Chithram Theme music-Violin

I've written some humming lyrics for this violin portion so that it is easy to understand. Please hear the song repeatedly to understand the tab.

Na na  nananaaa naa nanaa
0--5/8-7-8-7\5--5---5/7-3--------

Na na  nananaaa naa na na         (2)
0--5/8-7-8-7\5--5---5--5---------


Na naaa na...na naaa  na
5--5/12-12---10-10/12-12---------

Na na naaa...na na naaa naaa
10-12-10\8---8--10-8\7--7--------

Na na na naaa...naaa na  na naaa
4--5--4--2------4----4/5-4--2----

Na naaa...na    naaa...naaa
0--4/5----12\10-8-\5---5---------

Unarumee ganam

Unarumee   gaanam urukumen   ullam
5-7-8-8/12-8--7\5-5-7-8-8/12-7/8-7-

Unarumee   gaanam urukumen   ullam
5-7-8-8/12-8--7\5-5-7-8-8/12-7/8-7-


Ee  sneha laalanam
5/8-7\3-3-5/8-8-7------------------

Nee neendum saagaram
5/8-7\3-3---5/8-8-7----------------


Unarumee gaanam urukumen ullam
5-7-8-8/12-8--7\5-5-7-8-8/12-7/8-7-

Kalli poonkuyile

Kalli poonkuyile kanni thenmozhiye
8-7---3-5-5-5----8-7---3-5-5-5-----

Kaathil melle chollumo
8-7-----3--3--0-3-3/7-5\3----------


Kaavathi   kaakkathan koottil
10\8-10-12-12/17-7-7--15--14\12\10-

muttayittannoru      naal
10-17-17-15/17-17-17-17------------

Kaananam    neele    nee
17/19-19-17-15\12-12-12------------

Paari    parannoru
12/17-15-12-10-10-10---------------

Kallam   paranjathenthe
10/15-12-10------------------------


Kalli poonkuyile kanni thenmozhiye
8-7---3-5-5-5----8-7---3-5-5-5-----

Kaathil melle chollumo
8-7-----3--3--0-3-3/7-5\3----------

Neela vaana cholayil

neela       vaana    cholayil
12/15\12-15-15/17-17-12\8-10-7-------

neendidunna chandrike
5/8-7-5\3-3-5-5/8-7\3----------------

neela       vaana    cholayil
12/15\12-15-15/17-17-12\8-10-7-------

neendidunna chandrike
5/8-7-5\3-3-5-5/8-7\3----------------


njan rachicha kavithakal
5/7--5-7---5--7-7-7/10-10\7----------

ninte mizhiyil kandu   njan
5/7-5-7-7-5----7--7/10-10\7----------

varaathe vannoren     devi
7-7/8-8-8/10-10-10/12-12/15\12-15/17-


neela       vaana    cholayil
12/15\12-15-15/17-17-12\8-10-7-------

neendidunna chandrike
5/8-7-5\3-3-5-5/8-7\3----------------

Moham kondu njan

moham kondu njan doore etho
3-5----3-5--5/8--3-5---5/10-9--8--5---------

eenam pootha naal madhu thedi poyi
3-5-----3-5--5/8--3-5---5/9-9-9/12/15-15\12-


doore          neele
12/15\12/15-10-10/12\10/12-9----------------

thaliraadum   poovanangal
9/10-10-8--8--8/10-8-5-3--------------------


moham kondu njan doore etho
3-5----3-5--5/8--3-5---5/9/10-9-8-5---------

eenam pootha naal madhu thedi poyi
3-5-----3-5--5/8--3-5---5/9-9-9/12/15-15\12-


/ - slide up
\ - slide down

2 comments: