Thumbi Penne - Bangalore Days (Malayalam) Song Guitar Notes

Song   : Thumbi Penne
Movie  : Bangalore Days
Singer : Siddharth Menon
Music  : Gopi Sundar
Lyrics : Santhosh Varma

2nd(B) and 1st(E) strings are used.

  Thumbi penne  kothiyille neril kaanan
E-9--9---9-9/12-9-7-7--7---7--7--7h9-7--
  Vannitunde En  velipennu
E-9-9-9-9/12-7\5---5-7/9-7--------------
B----------------7----------------------
  Kavilathunde Kannadithundu
E-9-9-9-9-9/12-5-5-7-7/9-7--------------
  Chundathunde Chingarachendu
E-9---9-9-9/12-5-5-7-7/9-7--------------

  Neelakaayalupol    thonum omal pennanu
E-9-10-10/12-10-9-----------9-10-9--------------
B-----------------12-10-12---------12-10--------
  Mudi kaarmukilum   tholkum nadan chelanu
E-9-10-10/12-10-9------------9-10--9------------
B-----------------12-10-12-----------12-10------
  Konde poraam pennale    ponnonakaalathu
E-9------------9----------9-7-9-9/12-10-9-------
B---12--7-10-----10-10/12-----------------------
  Kannonnanjum kanaale    nee kaanumnerathu
E-9------------9----------9---7-9-9/12-10-9-----
B---12--7-10-----10-10/12-----------------------
  Thankathaamarapol  poonthen chinthum nenjanu
E-9-10-10/12-10-9-------------9-10-----9--------
B-----------------12-10-12---------------12-10--
  Chellatharakalum   pennum pande kootanu
E-9-10-10/12-10-9-----------9-10--9-------------
B-----------------12-10-12----------12-10-------


  Pularikilikal     kaathoram konchum pole
E----------------------------------------9----------
B-10-10-10-10-10-10-7--7--10--10-12---12------------
  Pulakam vitharum chenchillam mozhiyane   hoi
E-9-12-9--9-12-9---9-12--9-----9----------9---------
B--------------------------------12-12-12---12-10---
  Kuliril  viriyum  poomulla  poovum kondu
E----------------------------------------9----------
B-10-10-10-10-10-10-7--7--10--10-12--12-------------
  Hrudhayam pothiyum punchiriyaanee
E-9-12-9----9-12-9---9-12-12-14-14/16-----14-14/16--
  Hoo onavale       ninachale   mazha pozhiyum
E-7/9-9----------------------------7--9/10-9-7------
B-------12-10-10/12-10-10-7-7/9-10------------------
  Ho hoo kanmaniye     nee kandaate
E-5--7/9-9--------------------12-9\7----------------
B----------12-10-10/12-10--10-----------------------

  Neelakaayalupol    thonum omal pennanu
E-9-10-10/12-10-9-----------9-10-9--------------
B-----------------12-10-12---------12-10--------
  Mudi kaarmukilum   tholkum nadan chelanu
E-9-10-10/12-10-9------------9-10--9------------
B-----------------12-10-12-----------12-10------
  Konde poraam pennale    ponnonakaalathu
E-9------------9----------9-7-9-9/12-10-9-------
B---12--7-10-----10-10/12-----------------------
  Kannonnanjum kanaale    nee kaanumnerathu
E-9------------9----------9---7-9-9/12-10-9-----
B---12--7-10-----10-10/12-----------------------
  Thankathaamarapol  poonthen chinthum nenjanu
E-9-10-10/12-10-9-------------9-10-----9--------
B-----------------12-10-12---------------12-10--
  Chellatharakalum   pennum pande kootanu
E-9-10-10/12-10-9-----------9-10--9-------------
B-----------------12-10-12----------12-10-------


  Nagarathirayil    neeradi   padikondu
E----------------------------------------9---------
B-10-10-10-10-10-10-7--7--10--10-12---12-----------
  Ozhukum arayannam polen     pennale
E-9-12-9--9-12-9-12-12/14-12--9------------9-------
B-------------------------------12-12--------12-10-
  Thodiyil kaliveedundakum    kaalam thotte
E----------------------------------------9---------
B-10-10-10-10-10-10-7--7--10--10-12--12------------
  Pathivaay kanavil njan kandollee..
E-9-12-9----9-12-9---9---12-14-14/16-----14-14/16--
  Hoo ennuvare      ivalkaayen  manam thudiche
E-7/9-9----------------------------7--9/10-9-7-----
B-------12-10-10/12-10-10-7-7/9-10-----------------
  Oren   kanmaniye     nee kandaate
E-5--7/9-9--------------------12-9\7---------------
B----------12-10-10/12-10--10----------------------

  Thumbi penne  kothiyille neril kaanan
E-9--9---9-9/12-9-7-7--7---7--7--7h9-7--
  Vannitunde En  velipennu
E-9-9-9-9/12-7\5---5-7/9-7--------------
B----------------7----------------------
  Kavilathunde Kannadithundu
E-9-9-9-9-9/12-5-5-7-7/9-7--------------
  Chundathunde Chingarachendu
E-9---9-9-9/12-5-5-7-7/9-7--------------

  Neelakaayalupol    thonum omal pennanu
E-9-10-10/12-10-9-----------9-10-9--------------
B-----------------12-10-12---------12-10--------
  Mudi kaarmukilum   tholkum nadan chelanu
E-9-10-10/12-10-9------------9-10--9------------
B-----------------12-10-12-----------12-10------
  Konde poraam pennale    ponnonakaalathu
E-9------------9----------9-7-9-9/12-10-9-------
B---12--7-10-----10-10/12-----------------------
  Kannonnanjum kanaale    nee kaanumnerathu
E-9------------9----------9---7-9-9/12-10-9-----
B---12--7-10-----10-10/12-----------------------
  Thankathaamarapol  poonthen chinthum nenjanu
E-9-10-10/12-10-9-------------9-10-----9--------
B-----------------12-10-12---------------12-10--
  Chellatharakalum   pennum pande kootanu
E-9-10-10/12-10-9-----------9-10--9-------------
B-----------------12-10-12----------12-10-------


/ - slide up
\ - slide down
h - hammer on

No comments:

Post a Comment