Abhi Mujh Mein Kahin - Agneepath (Hindi) Song Guitar Notes

Song   : Abhi Mujh Mein Kahin
Movie  : Agneepath
Singer : Sonu Nigam
Music  : Ajay Gogavale, Atul Gogavale
Lyrics : Amitabh Bhattacharya

The 2nd(B) and 1st(E) strings are used.

  Abhi mujh     mein kahin
B-7-10-10/12-10-8\7--7-10-----------------
  Baaki     thodi   si hai    zindagi
B-10/12-8\7-8-10/12-10-7/10\8-7\5-5-5/7---
  Jagi dhadkan      nayi
B-7-10-10/12-10-8\7-7-10------------------
  Jaana     zinda   hoon main   toh abhi
B-10/12-8\7-8-10/12-10---7/10\8-7\5-5-5/7-

  Kuch aisi lagan
E---5--7--9-9/10-7\5---------------
B-7--------------------------------
  iss lamhe   mein hai
E---5-7-7-9-9/10-7\5---------------
B-7--------------------------------
  Yeh  lamha kahaan tha mera
E---5--7-7-9-10-9\7-9---10-9-10/12-
B-7--------------------------------

  Ab hai saamne
E-10-12-12/14-12-10-9\7------------------
  Ishe  chhuu loon zara
E-10-12-12/14-12---10-9\7----------------
  Marr jaaun ya    jee loon  zaraaa
E-9-10-9\7-9-10/14-12--10-\9-9-9/10---\9-
  Khushiyaan  choom loon
E-10-12-12/14-12-10-9\7-------------
  Yaa ro loon     zara
E-10--12-12/14-12-10-9\7------------
  Marr jaaun ya    jee loon  zaraa
E-9-10-9\7-9-10/14-12--10-\9-9-9/10-

  Abhi mujh     mein kahin
B-7-10-10/12-10-8\7--7-10---------------
  Baaki     thodi   si hai    zindagi
B-10/12-8\7-8-10/12-10-7/10\8-7\5-5-5/7-


  Dhoop mein jalte hue tann koo
E-10--9------7-8---7-----------------------
B-------10-----------8-7-8--8/10-----------
  Chhaya       ped   ki      mil gayi
B-10-10/12--\7-7--12-10/12\7-7\5-5-5/7-----
  Roothe bacche ki  hasi  jaisi
E-10---9-----7--7/8-7----------------------
B--------10-----------8---7h8-8/10---------
  Phuslane           se phir    khil gayi
B-10-10-10/12--\7-7--12-10/12\7-7\5--5-5/7-
  Kuch aisa   hi ab   mehsoos  
B---5--7/10-9-10-9-10-9-10-9--10-----------
G-7----------------------------------------
  dil  ko   ho   raha  hai
B-9-10-9h10-9/10-9-7\5---------------------
G----------------------7-------------------
  Barson   ke puraane      zakhmon
B---5-7/10-9--10-9h10-9h10-9-9h10----------
G-7----------------------------------------
  pe   marham     laga    sa hai
B-9h10-9-10-10/14-12-10\8-7--5/7-----------
G------------------------------------------

  Kuch aisa rahan
E---5--7--9-9/10-7\5-------------
B-7------------------------------
  iss lamhe mein hai
E---5-7-7-9-9/10-7\5-------------
B-7------------------------------
  Yeh  lamha kahaan tha mera
E---5--7-7-9-10-9\7-9---10/14-12-
B-7------------------------------

  Ab hai saamne
E-10-12-12/14-12-10-9\7--------------------
  Ishe  chhuu loon zara
E-10-12-12/14-12---10-9\7------------------
  Marr jaaun ya    jee loon  zaraaa
E-9-10-9\7-9-10/14-12--10-\9-9-9/10-----\9-
  Khushiyaan  choom loon
E-10-12-12/14-12-10-9\7-------------
  Yaa ro    loon zara
E-10--12/14-12---10-9\7-------------
  Marr jaaun ya    jee loon  zaraa
E-9-10-9\7-9-10/14-12--10-\9-9-9/10-


  Dor  se tooti patang jaisi
E-10-9----7-8---7------------------------
B------10---------8----7-8--8/10---------
  Thi yeh       zindagaani      meri
B-10--10/12--\7-7--12-10/12-7\5-5-5/7----
  Aaj  hoon kal ho mera naho
E-10-9------7---8--7---------------------
B------10------------8--7h8-8/10---------
  Har din thi       kahaani        meri
B-10-10-10/12--\7-7-12-10/12\7-7\5-5-5/7-
  Ek bandhan naya    peeche seh
B---5-7/10-9-10-9h10-9h10-9-10-----------
G-7--------------------------------------
  ab   mujhko    bulaye
B-9h10-9h10-9/10-9-7/5-------------------
G----------------------7-----------------
  Aane     wale kal  ki   kyun fhikar
B---5-7/10-9-10-9-10-9/10-9----10-9-10---
G-7--------------------------------------
  mujhko     sataa jaaye
B-9-10-10/14-10-12-8-7-------------------

  Ik  aisi chubhan
E---5-7--9-9/10-7\5-----------------------
B-7---------------------------------------
  iss lamhe mein hai
E---5-7-7-9-9/10-7\5----------------------
B-7---------------------------------------
  Yeh  lamha kahaan tha mera
E---5--7-7-9-10-9\7-9---10-9-10/12--12/14-
B-7---------------------------------------

  Ab hai saamne
E-10-12-12/14-12-10-9\7-----------------------
  Ishe  chhuu loon zara
E-10-12-12/14-12---10-9\7---------------------
  Marr jaaun ya    jee loon zaraaa
E-9-10-9\7-9-10/14-12--10---12/14-12/14----12-

  Khushiyaan  choom loon
E-10-12-12/14-12-10-9\7-----------
  Yaa ro loon     zara
E-10--12-12/14-12-10-9\7----------
  Marr jaaun  ya  jee loon  zaraa
E-9-10-9\7----7\5-----------------
B----------10-----8\7-7-----8-5/7-

/ - slide up
\ - slide down
h - hammer on

2 comments:

  1. Replies
    1. Its just a separator in between notes given in tabs just like the meaning of 'space' given between words in writing.

      Delete