Mazha Kondu Mathram - Spirit (Malayalam) Song Guitar Notes

Mazha Kondu Mathram Guitar Tabs
Movie  : Spirit (Malayalam)
Song   : Mazha Kondu Mathram
Lyrics : Rafeeq Ahmed
Music  : Shahabas Aman
Singer : Vijay Yesudas

The 2nd(B) and 3rd(G) strings are used.

 Uhum.. Uhum… Uhu   hum..
B--8\6---6\4--3/4\3\1-1------

 Mazhakondu mathram
B-8-8-8---8-6-6--------------

 Mulakkunna vithukal
B-6-4-4--4--3--3-3-----------

 Chilathund mannin manasil
B-6-6-6--6----4-3--1-1--1----

 Pranayathinal mathram
B--8-8-8--10-6-6--8----------

 Eriyunna  jeevante
B-4-4-4--4--3-3-3------------

 Thirikalundathmaavin ullil    (x2)
B---4-4--4-4--3-1-----1-1----
G------------------0---------



 Oru   chumbanathinay   daham shamikkathe
B-8-11-8\6-8-8/13-13-13--11-8-8-8/13-13-13-----

 Eriyunna      poovithal thumpumaayi
B-11-11-11--11-10--10-10-8--8-8-8--------------

 Parayaatha    priyatharamayoru       vaakkinte
B-13-13-13--13-11-11--11-11--10--10-10-8-8--8--

 Madhuram padarnnoru chundumaayi
B-6-6-6--8-4--4-6----3--3-3-3------------------

 Veruthe parasparam nokkiyirikkunnu
B-8-8-8--8-6--6-6---4--4-4-3-3-3---------------

 Nira mouna chashakathin irupuramaay
B-4-4-4--4-----3-3--3--3-4-3-3-1-1-------------



 Mazhakondu mathram
B-8-8-8---8-6-6--------------

 Mulakkunna vithukal
B-6-4-4--4--3--3-3-----------

 Chilathund mannin manasil
B-6-6-6--6----4-3--1-1--1----

 Pranayathinal mathram
B--8-8-8--10-6-6--8----------

 Eriyunna  jeevante
B-4-4-4--4--3-3-3------------

 Thirikalundathmaavin ullil
B---4-4--4-4--3-1-----1-1----
G------------------0---------



 Samaya  kallolangal  kutharumee karayil naam
B-8-11-8-6-8/13-13-13----8-11-8--8-13-13--13---

 Manalinte     aardramaam maaridathil
B-11-11-11--11-10--10-10--8--8-8-8-------------

 Oru     mauna shilpam menanju   theerthenthino
B-13-13-13--13-11-11---11-10--10-10-8--8-8--

 Piriyunnu saandhya vishaadamaayi
B-6-6-6--8-4------4-6---3--3-3-3---------------

 oru  saagarathin midippumaayi
B-3-4---4/6-4-3-3-4-3--1-1-1-------------------


 Mazhakondu mathram
B-8-8-8---8-6-6--------------

 Mulakkunna vithukal
B-6-4-4--4--3--3-3-----------

 Chilathund mannin manasil
B-6-6-6--6----4-3--1-1--1----

 Pranayathinal mathram
B--8-8-8--10-6-6--8----------

 Eriyunna  jeevante
B-4-4-4--4--3-3-3------------

 Thirikalundathmaavin ullil
B---4-4--4-4--3-1-----1-1----
G------------------0---------


/ - slide up
\ - slide down

22 comments:

  1. Wow........its very nice....and thanks for posting the notations.....i love this song......great work sreehari......thanx a lot.....have a nice time....!

    ReplyDelete
  2. .thanx a lot sreehari.......

    ReplyDelete
  3. @Arun django: Always welcome.... :)

    ReplyDelete
  4. Sreehari kidu annato....publish more tabs..my name. Christy

    ReplyDelete
    Replies
    1. Thanks Christy.... will do more tabs.... keep visiting the blog... :) :)

      Delete
  5. DarrSANN warrckaapZZ18 September 2014 at 20:11

    pwolichu buddyy. thnx for this type of chords.
    pls i want more chords pls upload new songs.
    thnxxxx

    ReplyDelete
  6. Thanks Darsan... Wait for more songs :) ....

    ReplyDelete
  7. machaane kidu , thx 4 posting this any one plz upload guitar tabs of banglore days

    ReplyDelete
  8. Suppperr ettaaaa........waiting for ur next......

    ReplyDelete
  9. It will be good if you can put chords also with the tabs.. as video tutorial or smth

    ReplyDelete
    Replies
    1. Thanks for the suggestion.. :) But I hope chords are all available over other sites.... Still I'll try to do video covers and tutorials on tabs...

      Delete
  10. hi,can u do it in staff notes....neethu

    ReplyDelete
    Replies
    1. Staff notes may be tough to be used for majority... Still if you want the staff notes for a song, let me know by a request and I'll try to send the notes to you...

      Delete
  11. super thanks a lot sreehari

    ReplyDelete
  12. keep posting the tabs only friend... is so helpful,, thank you so much,,,,,

    ReplyDelete
  13. plz post the notations of hemanthamen from kohinoor

    ReplyDelete

  14. Thirikalundathmaavin ullil (x2)
    B---4-4--4-4--3-1-----1-1----
    G------------------0---------
    this parts G strings note seems a bit loud on an electric guitar

    ReplyDelete
  15. Can u pls ad classical notation

    ReplyDelete