Tum Hi Ho - Aashiqui 2 Song Guitar Notes

Tum Hi Ho Guitar Tabs
Movie: Aashiqui 2
Song: Tum Hi Ho
Music: Mithoon
Singer: Arijit Singh
Year: 2013


 Hum tere  bin  ab  reh  nahi sakte
E-8--13-11-11-9-9-8--6-4-6/9--8-8-8--
B------------------------------------

 Tere bina kya wajood mera            (x2)
E-6-6-4-6---6--4-3--1----1-----------
B----------------------4-------------


 Tujhse   juda   gar  ho   jaayenge
E-8-8-13-11-11h9--9\8-6\4-6/11-10-10-
B------------------------------------

 Toh khud se hi ho jaayenge judaa
E-6---6-6-6--4--6---6-4-3-1----1-----
B----------------------------4-------


 Kyunki tum hi ho
E---4-6-6/8--4-6---------------------
B------------------------------------

 Ab   tum hi ho
E-4-6-6/8--4-6-----------------------
B------------------------------------

 Zindagi ab tum hi ho
E-3-6-4--3-1--3----1------------1-3-4
B----------------4-------------------

 Chain bhi, mera dard bhi
E-4/8--4-6---4-6-6/8-4-6-------------
B------------------------------------

 Meri aashiqui ab tum hi ho
E-3-3-3---6-4--3-1--3----1-----------
B---------------------4--------------


 Tera     mera     rishta  hai kaisa
E-8-13h11-11h9-9\8---6-4-6/8---8-8---
B------------------------------------

 Ik   pal door gawara nahi
E-6-6-6-4-6-6--4-3-1----1------------
B---------------------4--------------

 Tere   liye   har roz hai jeete
E-8-13-11-11h9-9\8-6\4-6/9--8-8------
B------------------------------------

 Tujh ko diya mera waqt sabhi
E-6-6-6--4-6--6-4---3-1----1---------
B------------------------4-----------

 Koi  lamha mera na ho tere  bina
E-1-1-1/3-3--1-3--3/8--8h6-6-6-6/8---
B------------------------------------

 Har   saans    pe naam tera
E-8-13-13h11-11-9-9\8-8-6-8\4-6\3----
B------------------------------------



 Kyunki tum hi ho
E---4-6-6/8--4-6---------------------
B------------------------------------

 Ab   tum hi ho
E-4-6-6/8--4-6-----------------------
B------------------------------------

 Zindagi ab tum hi ho
E-3-6-4--3-1--3----1------------1-3-4
B----------------4-------------------

 Chain bhi, mera dard bhi
E-4/8--4-6---4-6-6/8-4-6-------------
B------------------------------------

 Meri aashiqui ab tum hi ho
E-3-3-3---6-4--3-1--3----1-----------
B---------------------4--------------


 Tere   liye     hi jiya     main
E-13-13-11-11/13-13-16-13\11-11\9----
B------------------------------------

 Khud ko jo yun   de  diya    hai
E---9-9--11-11/13-13-16-13\11-11\9---
B------------------------------------

 Teri wafa ne mujhko  sambhala
E-9-9-8-9--8--9-9-8\6-6-6/9-8--------
B------------------------------------

 Saare ghamon ko dil se nikala
E-9-9-----8-9--8--9-8\6-6-6/9-8------
B------------------------------------

 Tere saath mera hai naseeb  juda
E-1-1-1/3-3--1-3--3--8-8h6-6-6-6/8---
B------------------------------------

 Tujhe paake    adhoora naa raha hmm..
E-8-13-13h11-11-9-9\8-8-6---8\4--6\3-
B------------------------------------



 Kyunki tum hi ho
E---4-6-6/8--4-6---------------------
B------------------------------------

 Ab   tum hi ho
E-4-6-6/8--4-6-----------------------
B------------------------------------

 Zindagi ab tum hi ho
E-3-6-4--3-1--3----1------------1-3-4
B----------------4-------------------

 Chain bhi, mera dard bhi
E-4/8--4-6---4-6-6/8-4-6-------------
B------------------------------------

 Meri aashiqui ab tum hi ho      
E-3-3-3---6-4--3-1--3----1-----------
B---------------------4--------------



 Kyunki tum hi ho
E---6-8-8/13-8-11--------------------
B------------------------------------

 Ab    tum   hi ho
E-8-11-11/13--8-9--------------------
B------------------------------------

 Zindagi ab tum hi ho
E-6-9-8--6-4--6--3-4-----------6-8-11
B------------------------------------

 Chain bhi, mera dard    bhi
E--13-8-11--8-11-11/13-8-9-----------
B------------------------------------

 Meri aashiqui ab tum hi ho      
E-3-3-3---6-4--3-1--3----1-----------
B---------------------4--------------


/ - slide up
\ - slide down
h - hammer on

3 comments:

  1. brother how about trying the song in this manner???

    D-3
    E-1
    B-4-4-2-2-1-1
    G-1-3
    B-2-1-1
    G-3-3-1-3--3-1-0
    D-1-1-3

    IF U WANT THE REMAINIG TABS JUST INBOX ME

    FARIS

    ReplyDelete