Ethrayo Janmamayi - Summer in Bethlehem (Malayalam) Song Guitar Notes

Ethrayo Janmamayi Guitar Tabs
Movie     : Summer in Bethlahem
Song      : Ethrayo Janmamayi
Lyrics    : Gireesh Puthenchery
Music     : Vidya Sagar
Singer(s) : Srinivasan, Sujatha


The 2nd(B) and 3rd(G) strings are used.


Ethrayo    janmamayi   ninne-njan thedunnu (Intro)
1-1-3/8-\6-6-5-5/6--\4-4-1-3/4----4-4/6-3-

Um..um..um..
6-6/8---6/8/13\11\10-6-6/8----------------

Athramel   ishtamayi   ninneyen punyame
1-1-3/8-\6-6-5-5/6--\4-4-1-3/4--4-4/6-3---

Um..um..um..
6-6/8---6/8/13\11\10-6-6/8----------------

Doora theerangalum mooka tharagangalum
8-13--13--11--10-8-8-13--13---11-10-8-----

  Saakshikal.Um..um..um....
B-6-5-5/6----6/8/13\11\10-8/10\8\6-4\3----
G--------------------------------------3--

Ethrayo    janmamayi   ninne-njan thedunnu
1-1-3/8-\6-6-5-5/6--\4-4-1-3/4----4-4/6-3-


Ethrayo    janmamayi   ninne-njan thedunnu
1-1-3/8-\6-6-5-5/6--\4-4-1-3/4----4-4/6-3-

Um..um..um..
6-6/8---6/8/13\11\10-6-6/8----------------

Athramel   ishtamayi   ninneyen punyame
1-1-3/8-\6-6-5-5/6--\4-4-1-3/4--4-4/6-3---

Um..um..um..
6-6/8---6/8/13\11\10-6-6/8----------------

Doora theerangalum mooka tharagangalum
8-13--13--11--10-8-8-13--13---11-10-8-----

  Saakshikal.Um..um..um....
B-6-5-5/6----6/8/13\11\10-8/10\8\6-4\3----
G--------------------------------------3--

Ethrayo    janmamayi   ninne-njan thedunnu
1-1-3/8-\6-6-5-5/6--\4-4-1-3/4----4-4/6-3-


Kattodu  megham     melle        cholli
13-13-13-12-/13-\10-10-10/11--\8-8/10\6/8-

Snehardrametho    swakaryam
13-13-13-13-13/15-11-10--10----11\8-------

Mayunna  sandhye    ninne        thedi
13-13-13-12-/13-\10-10-10/11--\8-8/10\6/8-

Eeran nilavin paragam
13-13-13-13-13/15-11-10--10----11\8-------

Ennennum      nin madiyile  paithalayai
8\6-6/8\6-6/8-8---7-8-9-8---4/8-6-2-------

Nee   moolum    pattile pranayamayi
6/8\6-6/8\6-6/8-8-11-10-10-12-12/13-12----

Ninneyum       kathu njan     nilkkave
13-15-15/16\15-15-13-11/12\11-13-15-13----

Ethrayo    janmamayi   ninne-njan thedunnu
1-1-3/8-\6-6-5-5/6--\4-4-1-3/4----4-4/6-3-

Um..um..um..
6-6/8---6/8/13\11\10-6-6/8----------------


poovinte nenchil    thennal      neyyum
13-13-13-12-/13-\10-10-10/11--\8-8/10\6/8--

poornnenthu peyyum   vasantham
13-13-13----13-13/15-11-10--10----11\8-----

meymasa   ravil       pookum       mulle
8-8/13-13-12/13\12/13-10-10/11--\8-8/10\6/8-

nee thannu theera   sugandham
13--13-13--13-13/15-11-10--10----11\8------

ee  manjum    en mizhiyile maunavum
8\6-6/8\6-6/8-8--7-8-9-8---4/8-6-2---------

en    maril     nirayumee  mohavum
6/8\6-6/8\6-6/8-8-10-11-10-10-13-12--------

nithyamam      snehamayi      thannu njan
13-15-15/16\15-15-13-11/12\11-13-15--13----


Ethrayo    janmamayi   ninne-njan thedunnu
1-1-3/8-\6-6-5-5/6--\4-4-1-3/4----4-4/6-3-

Um..um..um..
6-6/8---6/8/13\11\10-6-6/8----------------

Athramel   ishtamayi   ninneyen punyame
1-1-3/8-\6-6-5-5/6--\4-4-1-3/4--4-4/6-3---

Um..um..um..
6-6/8---6/8/13\11\10-6-6/8----------------

Doora theerangalum mooka tharagangalum
8-13--13--11--10-8-8-13--13---11-10-8-----

  Saakshikal.Um..um..um....
B-6-5-5/6----6/8/13\11\10-8/10\8\6-4\3----
G--------------------------------------3--

Ethrayo    janmamayi   ninne-njan thedunnu
1-1-3/8-\6-6-5-5/6--\4-4-1-3/4----4-4/6-3-


/ - slide up
\ - slide down

2 comments:

  1. Could you please send me notation of this same song "yetrayo janmamai ninne " and " mandara cheppundo maanikya kallundo from the movie dasharadham" with cdef notes instead of 1 2 3 notes.
    thank you

    ReplyDelete
  2. Dear Master,

    Could you please send me notation of this same song "yetrayo janmamai ninne " and " mandara cheppundo maanikya kallundo from the movie dasharadham" with cdef notes instead of 1 2 3 notes.
    thank you

    ReplyDelete