Ethu Kari Raavilum - Bangalore Days (Malayalam) Song Guitar Notes

Ethu Kari Raavilum Guitar Tabs
Movie     : Bangalore Days
Song      : Ethu kari raavilum
Lyrics    : Rafeeq Ahamed
Music     : Gopi Sunder
Singer    : Haricharan

The 1st(E) and 2nd(B)strings are used.

Ethu    kari raavilum
8/11-10-8/6--4--3-4-------------------

Oru cheru kasavizha thunnum kiraname
4-6--6/8--4-6-6/8---4--3\1--1-3-3/4-3-

Ee   hridaya vaathilin
8/11-10-8-6--4--3-4-------------------

pazhuthilumozhukivaroo
4-6-6/8----4-6-6/8-8/10--10/11-10\8-8-


Arikile        puthu mandharamaay
10-11-13-13/15-15-13-13/16-15-13-11\10-

vidaru   nee
10-11-13-13/15-----13------------------

Unaruvaan      kothi thonnunnoree
10-11-13-13/15-15-13-13/16-15-13-11\10-

pulariyil
10-11-13-13/15-----13------------------

Angengo nin pon peeli minnunnuvoo
7-7--8--10--10--11-13-13/16-15-11-13---

Athilonnente nenjoram eyyunnuvo
7-7-7-8--10--10-11-13-13/16-15-13-15---

  Unarnnu     njan
E----14-15/17-15-----------------------
B-15-----------------------------------



Ethu    kari raavilum
8/11-10-8/6--4--3-4-------------------

Oru cheru kasavizha thunnum kiraname
4-6--6/8--4-6-6/8---4--3\1--1-3-3/4-3-

Ee   hridaya vaathilin
8/11-10-8-6--4--3-4-------------------

pazhuthilumozhukivaroo
4-6-6/8----4-6-6/8-8/10--10/11-10\8-8-



Neeyaam aathmaavin sankalpaminningane
10/12-7-12--7-8----10-12-12/13-12-10-8-10-------

Mindaathe mindunnathentho
8-8/10--8---7-5-3-5/12-7------------------------

Orkkathirunnappol  ennullil nee vannuu
12-7-8-10-12-12/13-12-10-8--10--8-8/10----------

Thirasheela    maattumorma polave      sakhi
10-11-11/13-11-13-11-13-15-15/16-15-13-11-11/13-

Oru   naalamaay      poothulanju
10-11-11/13-11-13-11-13-15-15/16-15-------------

  nee ninnenthino
E-14--15-14-------------------------------------
B-----------16-15-------------------------------


Arikile        puthu mandharamaay
10-11-13-13/15-15-13-13/16-15-13-11\10-

vidaru   nee
10-11-13-13/15-----13------------------

Unaruvaan      kothi thonnunnoree
10-11-13-13/15-15-13-13/16-15-13-11\10-

pulariyil
10-11-13-13/15-----13------------------



Njanaam ekaantha sangeethaminnangane
10/12-7-12--7-8--10-12-12/13-12-10-8-10----------

Manveena  thedunna neram
8-8/10--8-7-5-3----5/12-7------------------------

Paadaatha paattinte   then thulli nee thannu
12-7-8----10-12-12/13-12---10--8--10--8-8/10-----

Thelineela     vaanil ekathaaramaay     sakhi
10-11-11/13-11-13--11-13-15-15/16-15-13-11-11/13-

  Oru   raavil   doore  ninnu   nokki
E-----------------------------------14-----------
B-10-11-11/13-11-13--11-13-15-15/16--------------

  nee   enne
E-15\14------------------------------------------
B-------16-15------------------------------------


Ohh     ethu    kari raavilum
13\11\8-8/11-10-8/6--4--3-4-----------

Oru cheru kasavizha thunnum kiraname
4-6--6/8--4-6-6/8---4--3\1--1-3-3/4-3-

Ee   hridaya vaathilin
8/11-10-8-6--4--3-4-------------------

pazhuthilumozhukivaroo
4-6-6/8----4-6-6/8-8/10--10/11-10\8-8-



Arikile        puthu mandharamaay
10-11-13-13/15-15-13-13/16-15-13-11\10-

vidaru   nee
10-11-13-13/15-----13------------------

Unaruvaan      kothi thonnunnoree
10-11-13-13/15-15-13-13/16-15-13-11\10-

pulariyil
10-11-13-13/15-----13------------------

Angengo nin pon peeli minnunnuvoo
7-7--8--10--10--11-13-13/16-15-11-13---

Athilonnente nenjoram eyyunnuvo
7-7-7-8--10--10-11-13-13/16-15-13-15---

  Unarnnu     njan
E----14-15/17-15-----------------------
B-15-----------------------------------


/ - slide up
\ - slide down

6 comments:

  1. Hey...Im sorry..im a beginner and i dnt get which string u r playin
    Cud u pls post lyk:
    B:-----3-----5---3
    E---2---3--------
    Or lyk E2/B3/E3

    ReplyDelete
  2. Slash stand for a slide and most of the song is on E string ...

    ReplyDelete